Sedatives

Tsol

Tom: G
Tabbed by: Ryan Armstrong
Email:

Tuning: Standard
  
Another song from divided we stand i don't know solo 1 so you'll have to 
figure it out your self.

#1t1#  Intro
#1t2#e|-------------------------------|
B|-------------------------------|
G|-9-x-x-9-9-9-9-5-5-5-5---------|play 
D|-9-x-x-9-9-9-9-5-5-5-5-5-5-5-5-| x4
A|-7-7-7-7-7-7-7-3-3-3-3-5-5-5-5-|
E|-----------------------3-3-3-3-|#/1t2##/1t1#
#2t1#  Verse
#2t2#e|-------------------------------|
B|-------------------------------|
G|-9-x-x-9-x-x-9-5-x-x-5---------|play
D|-9-x-x-9-x-x-9-5-x-x-5-5-x-x-5-| x4
A|-7-7-7-7-7-7-7-3-3-3-3-5-x-x-5-|
E|-----------------------3-3-3-3-|#/2t2##/2t1#
#3t1#  Chorus
#3t2#e|-------------------------------------------------------------|
B|-------------------------------------------------------------|
G|-5-5-5-5-5-5-5-----------------------------------------------|
D|-5-5-5-5-5-5-5-5-5-5-5-5-5-5-9-9-9-9-9-9-9-10-10-10-12-12-12-|
A|-3-3-3-3-3-3-3-5-5-5-5-5-5-5-9-9-9-9-9-9-9-10-10-10-12-12-12-|
E|---------------3-3-3-3-3-3-3-7-7-7-7-7-7-7--8--8--8-10-10-10-|#/3t2##/3t1#
#4t1#  Pre verse
#4t2#e|-------------------------------|
B|-------------------------------|
G|-9-x-x-9-9-9-9-5-5-5-5---------|play
D|-9-x-x-9-9-9-9-5-5-5-5-5-5-5-5-| x2
A|-7-7-7-7-7-7-7-3-3-3-3-5-5-5-5-|
E|-----------------------3-3-3-3-|#/4t2##/4t1#
#5t1#  Verse
#5t2#e|-------------------------------|
B|-------------------------------|
G|-9-x-x-9-x-x-9-5-x-x-5---------|play
D|-9-x-x-9-x-x-9-5-x-x-5-5-x-x-5-| x4
A|-7-7-7-7-7-7-7-3-3-3-3-5-x-x-5-|
E|-----------------------3-3-3-3-|#/5t2##/5t1#
#6t1#  Chorus
#6t2#e|----------------------------------------------------|
B|----------------------------------------------------|
G|-5-5-5-5-5-5-5--------------------------------------|
D|-5-5-5-5-5-5-5-5-5-5-5-5-5-5-9-9-9-9-9-9-9-10-10-10-|
A|-3-3-3-3-3-3-3-5-5-5-5-5-5-5-9-9-9-9-9-9-9-10-10-10-|
E|---------------3-3-3-3-3-3-3-7-7-7-7-7-7-7--8--8--8-|#/6t2##/6t1#
#7t1#  Continued
#7t2#e|-------------------------------------------------------------|
B|-------------------------------------------------------------|
G|-5-5-5-5-5-5-5-----------------------------------------------|
D|-5-5-5-5-5-5-5-5-5-5-5-5-5-5-9-9-9-9-9-9-9-10-10-10-12-12-12-|
A|-3-3-3-3-3-3-3-5-5-5-5-5-5-5-9-9-9-9-9-9-9-10-10-10-12-12-12-|
E|---------------3-3-3-3-3-3-3-7-7-7-7-7-7-7--8--8--8-10-10-10-|#/7t2##/7t1#
#8t1#  Played under first solo but i don't know it
#8t2#e|-------------------------------|
B|-------------------------------|
G|-9-x-x-9-9-9-9-5-5-5-5---------|play 
D|-9-x-x-9-9-9-9-5-5-5-5-5-5-5-5-| x4
A|-7-7-7-7-7-7-7-3-3-3-3-5-5-5-5-|
E|-----------------------3-3-3-3-|#/8t2##/8t1#
#9t1#  Solo 1
#9t2#e|---------------------------------------------------------|
B|---------------------------------------------------------|
G|-9-9-9-9-9-9-9-11-11-11-11-11-11-11-12-12-12-12-12-12-12-|
D|---------------------------------------------------------|
A|-7-7-7-7-7-7-7--9--9--9--9--9--9--9-10-10-10-10-10-10-10-|
E|---------------------------------------------------------|#/9t2##/9t1#
#10t1#  Continued
#10t2#e|----------------------|
B|----------------------|
G|-11-11-11-11-11-11-11-|
D|----------------------|
A|--9--9--9--9--9--9--9-|
E|----------------------|#/10t2##/10t1#
#11t1#  Continued
#11t2#e|---------------------------------------------------------|
B|---------------------------------------------------------|
G|-9-9-9-9-9-9-9-11-11-11-11-11-11-11-12-12-12-12-12-12-12-|
D|---------------------------------------------------------|
A|-7-7-7-7-7-7-7--9--9--9--9--9--9--9-10-10-10-10-10-10-10-|
E|---------------------------------------------------------|#/11t2##/11t1#
#12t1#  Continued
#12t2#e|--------------------------------------|
B|--------------------------------------|
G|-14-14-14-14-14-14-14-14-14-14-14-14\-|
D|--------------------------------------|
A|-12-12-12-12-12-12-12-12-12-12-12-12\-|
E|--------------------------------------|#/12t2##/12t1#
#13t1#  Chorus
#13t2#e|-------------------------------------------------------------|
B|-------------------------------------------------------------|
G|-5-5-5-5-5-5-5-----------------------------------------------|
D|-5-5-5-5-5-5-5-5-5-5-5-5-5-5-9-9-9-9-9-9-9-10-10-10-12-12-12-|
A|-3-3-3-3-3-3-3-5-5-5-5-5-5-5-9-9-9-9-9-9-9-10-10-10-12-12-12-|
E|---------------3-3-3-3-3-3-3-7-7-7-7-7-7-7--8--8--8-10-10-10-|#/13t2##/13t1#
#14t1#  Pre verse
#14t2#e|-------------------------------|
B|-------------------------------|
G|-9-x-x-9-9-9-9-5-5-5-5---------|play
D|-9-x-x-9-9-9-9-5-5-5-5-5-5-5-5-| x4
A|-7-7-7-7-7-7-7-3-3-3-3-5-5-5-5-|
E|-----------------------3-3-3-3-|#/14t2##/14t1#
#15t1#  Verse
#15t2#e|-------------------------------|
B|-------------------------------|
G|-9-x-x-9-x-x-9-5-x-x-5---------|play
D|-9-x-x-9-x-x-9-5-x-x-5-5-x-x-5-| x4
A|-7-7-7-7-7-7-7-3-3-3-3-5-x-x-5-|
E|-----------------------3-3-3-3-|#/15t2##/15t1#
#16t1#  Chorus
#16t2#e|----------------------------------------------------|
B|----------------------------------------------------|
G|-5-5-5-5-5-5-5--------------------------------------|
D|-5-5-5-5-5-5-5-5-5-5-5-5-5-5-9-9-9-9-9-9-9-10-10-10-|
A|-3-3-3-3-3-3-3-5-5-5-5-5-5-5-9-9-9-9-9-9-9-10-10-10-|
E|---------------3-3-3-3-3-3-3-7-7-7-7-7-7-7--8--8--8-|#/16t2##/16t1#
#17t1#  Continued
#17t2#e|-------------------------------------------------------------|
B|-------------------------------------------------------------|
G|-5-5-5-5-5-5-5-----------------------------------------------|
D|-5-5-5-5-5-5-5-5-5-5-5-5-5-5-9-9-9-9-9-9-9-10-10-10-12-12-12-|
A|-3-3-3-3-3-3-3-5-5-5-5-5-5-5-9-9-9-9-9-9-9-10-10-10-12-12-12-|
E|---------------3-3-3-3-3-3-3-7-7-7-7-7-7-7--8--8--8-10-10-10-|#/17t2##/17t1#
#18t1#  Outro
#18t2#e|-------------|
B|-------------|
G|-9-x-x-x-9-9-|
D|-9-x-x-x-9-9-|
A|-7-7-7-7-7-7-|
E|-------------|#/18t2##/18t1#

Thats it hope you enjoyed it i'll see ya later.

| \  slide down
| h  hammer-on
| p  pull-off
| ~  vibrato
| +  harmonic
| x  Mute note
===============================================================================
Composição: Colaboração e revisão: