busca

Sex Not Violence

Tsol

Tom: C
Tabbed by: Ryan Armstrong
Email:

Tuning: Standard

 so here it is.

  Intro play x8
e|-------------------------|
B|-------------------------|
G|-----5-5-5-5-----7-7-7-7-|
D|-7-7-5-5-5-5-5-5-7-7-7-7-|
A|-7-7-3-3-3-3-5-5-5-5-5-5-|
E|-5-5---------3-3---------|
  Verse 
e|-----------------------------------------|
B|-----------------------------------------|
G|-------------------------------------7-7-|
D|-5-5-5-5-5-5-5-5-5-5-5-5-5-5-5-5-5-5-7-7-|
A|-3-3-3-3-3-3-3-3-3-3-3-3-3-3-3-3-3-3-5-5-|
E|-----------------------------------------|
  Continued play x2
e|---------------------|
B|---------------------|
G|---5-5-5-5---7-7-7-7-|
D|-7-5-5-5-5-5-7-7-7-7-|
A|-7-3-3-3-3-5-5-5-5-5-|
E|-5---------3---------|
  Continued
e|-----------------------------------------|
B|-----------------------------------------|
G|-------------------------------------7-7-|
D|-5-5-5-5-5-5-5-5-5-5-5-5-5-5-5-5-5-5-7-7-|
A|-3-3-3-3-3-3-3-3-3-3-3-3-3-3-3-3-3-3-5-5-|
E|-----------------------------------------|
  Continued play x2
e|---------------------|
B|---------------------|
G|---5-5-5-5---7-7-7-7-|
D|-7-5-5-5-5-5-7-7-7-7-|
A|-7-3-3-3-3-5-5-5-5-5-|
E|-5---------3---------|
  Continued
e|---------------------------------------------|
B|---------------------------------------------|
G|-------------------------------------7-7-7-7-|
D|-5-5-5-5-5-5-5-5-5-5-5-5-5-5-5-5-5-5-7-7-7-7-|
A|-3-3-3-3-3-3-3-3-3-3-3-3-3-3-3-3-3-3-5-5-5-5-|
E|---------------------------------------------|
  Continued play x2
e|---------------------|
B|---------------------|
G|---5-5-5-5---7-7-7-7-|
D|-7-5-5-5-5-5-7-7-7-7-|
A|-7-3-3-3-3-5-5-5-5-5-|
E|-5---------3---------|
  Chorus
e|---------------------------------------------|
B|---------------------------------------------|
G|---------------------------------------------|
D|-5-x-5-x-5-x-5-x-5-5-5/7-x-7-x-7-x-7-x-7-7-7-|
A|-5-x-5-x-5-x-5-x-5-5-5/7-x-7-x-7-x-7-x-7-7-7-|
E|-3-x-3-x-3-x-3-x-3-3-3/5-x-5-x-5-x-5-x-5-5-5-|
  After chorus play x4
e|---------------------|
B|---------------------|
G|---5-5-5-5---7-7-7-7-|
D|-7-5-5-5-5-5-7-7-7-7-|
A|-7-3-3-3-3-5-5-5-5-5-|
E|-5---------3---------|
  Verse 
e|-----------------------------------------|
B|-----------------------------------------|
G|-------------------------------------7-7-|
D|-5-5-5-5-5-5-5-5-5-5-5-5-5-5-5-5-5-5-7-7-|
A|-3-3-3-3-3-3-3-3-3-3-3-3-3-3-3-3-3-3-5-5-|
E|-----------------------------------------|
  Continued play x2
e|---------------------|
B|---------------------|
G|---5-5-5-5---7-7-7-7-|
D|-7-5-5-5-5-5-7-7-7-7-|
A|-7-3-3-3-3-5-5-5-5-5-|
E|-5---------3---------|
  Continued
e|-----------------------------------------|
B|-----------------------------------------|
G|-------------------------------------7-7-|
D|-5-5-5-5-5-5-5-5-5-5-5-5-5-5-5-5-5-5-7-7-|
A|-3-3-3-3-3-3-3-3-3-3-3-3-3-3-3-3-3-3-5-5-|
E|-----------------------------------------|
  Continued play x2
e|---------------------|
B|---------------------|
G|---5-5-5-5---7-7-7-7-|
D|-7-5-5-5-5-5-7-7-7-7-|
A|-7-3-3-3-3-5-5-5-5-5-|
E|-5---------3---------|
  Continued
e|---------------------------------------------|
B|---------------------------------------------|
G|-------------------------------------7-7-7-7-|
D|-5-5-5-5-5-5-5-5-5-5-5-5-5-5-5-5-5-5-7-7-7-7-|
A|-3-3-3-3-3-3-3-3-3-3-3-3-3-3-3-3-3-3-5-5-5-5-|
E|---------------------------------------------|
  Continued play x2
e|---------------------|
B|---------------------|
G|---5-5-5-5---7-7-7-7-|
D|-7-5-5-5-5-5-7-7-7-7-|
A|-7-3-3-3-3-5-5-5-5-5-|
E|-5---------3---------|
  Chorus play x2
e|---------------------------------------------|
B|---------------------------------------------|
G|---------------------------------------------|
D|-5-x-5-x-5-x-5-x-5-5-5/7-x-7-x-7-x-7-x-7-7-7-|
A|-5-x-5-x-5-x-5-x-5-5-5/7-x-7-x-7-x-7-x-7-7-7-|
E|-3-x-3-x-3-x-3-x-3-3-3/5-x-5-x-5-x-5-x-5-5-5-|
  Bridge play x8 I don't know the solo so you'll have to tab it your self
e|---------------------|
B|---------------------|
G|---5-5-5-5---7-7-7-7-|
D|-7-5-5-5-5-5-7-7-7-7-|
A|-7-3-3-3-3-5-5-5-5-5-|
E|-5---------3---------|
  Verse 
e|-----------------------------------------|
B|-----------------------------------------|
G|-------------------------------------7-7-|
D|-5-5-5-5-5-5-5-5-5-5-5-5-5-5-5-5-5-5-7-7-|
A|-3-3-3-3-3-3-3-3-3-3-3-3-3-3-3-3-3-3-5-5-|
E|-----------------------------------------|
  Continued play x2
e|---------------------|
B|---------------------|
G|---5-5-5-5---7-7-7-7-|
D|-7-5-5-5-5-5-7-7-7-7-|
A|-7-3-3-3-3-5-5-5-5-5-|
E|-5---------3---------|
  Continued
e|-----------------------------------------|
B|-----------------------------------------|
G|-------------------------------------7-7-|
D|-5-5-5-5-5-5-5-5-5-5-5-5-5-5-5-5-5-5-7-7-|
A|-3-3-3-3-3-3-3-3-3-3-3-3-3-3-3-3-3-3-5-5-|
E|-----------------------------------------|
  Continued play x2
e|---------------------|
B|---------------------|
G|---5-5-5-5---7-7-7-7-|
D|-7-5-5-5-5-5-7-7-7-7-|
A|-7-3-3-3-3-5-5-5-5-5-|
E|-5---------3---------|
  Chorus play x2
e|---------------------------------------------|
B|---------------------------------------------|
G|---------------------------------------------|
D|-5-x-5-x-5-x-5-x-5-5-5/7-x-7-x-7-x-7-x-7-7-7-|
A|-5-x-5-x-5-x-5-x-5-5-5/7-x-7-x-7-x-7-x-7-7-7-|
E|-3-x-3-x-3-x-3-x-3-3-3/5-x-5-x-5-x-5-x-5-5-5-|
  Outro play x2
e|---------------------|
B|---------------------|
G|---5-5-5-5---7-7-7-7-|
D|-7-5-5-5-5-5-7-7-7-7-|
A|-7-3-3-3-3-5-5-5-5-5-|
E|-5---------3---------|
  Finish on 
e|---|
B|---|
G|---|
D|-7-|
A|-7-|
E|-5-|

There it is hope you enjoy it i'll see ya later.

| /  slide up
| \  slide down
| h  hammer-on
| p  pull-off
| ~  vibrato
| +  harmonic
| x  Mute note
============================================================================

Clipes