Sex Not Violence

Tsol

Tom: G
Tabbed by: Ryan Armstrong
Email:

Tuning: Standard

 so here it is.

#1t1#  Intro play x8
#1t2#e|-------------------------|
B|-------------------------|
G|-----5-5-5-5-----7-7-7-7-|
D|-7-7-5-5-5-5-5-5-7-7-7-7-|
A|-7-7-3-3-3-3-5-5-5-5-5-5-|
E|-5-5---------3-3---------|#/1t2##/1t1#
#2t1#  Verse 
#2t2#e|-----------------------------------------|
B|-----------------------------------------|
G|-------------------------------------7-7-|
D|-5-5-5-5-5-5-5-5-5-5-5-5-5-5-5-5-5-5-7-7-|
A|-3-3-3-3-3-3-3-3-3-3-3-3-3-3-3-3-3-3-5-5-|
E|-----------------------------------------|#/2t2##/2t1#
#3t1#  Continued play x2
#3t2#e|---------------------|
B|---------------------|
G|---5-5-5-5---7-7-7-7-|
D|-7-5-5-5-5-5-7-7-7-7-|
A|-7-3-3-3-3-5-5-5-5-5-|
E|-5---------3---------|#/3t2##/3t1#
#4t1#  Continued
#4t2#e|-----------------------------------------|
B|-----------------------------------------|
G|-------------------------------------7-7-|
D|-5-5-5-5-5-5-5-5-5-5-5-5-5-5-5-5-5-5-7-7-|
A|-3-3-3-3-3-3-3-3-3-3-3-3-3-3-3-3-3-3-5-5-|
E|-----------------------------------------|#/4t2##/4t1#
#5t1#  Continued play x2
#5t2#e|---------------------|
B|---------------------|
G|---5-5-5-5---7-7-7-7-|
D|-7-5-5-5-5-5-7-7-7-7-|
A|-7-3-3-3-3-5-5-5-5-5-|
E|-5---------3---------|#/5t2##/5t1#
#6t1#  Continued
#6t2#e|---------------------------------------------|
B|---------------------------------------------|
G|-------------------------------------7-7-7-7-|
D|-5-5-5-5-5-5-5-5-5-5-5-5-5-5-5-5-5-5-7-7-7-7-|
A|-3-3-3-3-3-3-3-3-3-3-3-3-3-3-3-3-3-3-5-5-5-5-|
E|---------------------------------------------|#/6t2##/6t1#
#7t1#  Continued play x2
#7t2#e|---------------------|
B|---------------------|
G|---5-5-5-5---7-7-7-7-|
D|-7-5-5-5-5-5-7-7-7-7-|
A|-7-3-3-3-3-5-5-5-5-5-|
E|-5---------3---------|#/7t2##/7t1#
#8t1#  Chorus
#8t2#e|---------------------------------------------|
B|---------------------------------------------|
G|---------------------------------------------|
D|-5-x-5-x-5-x-5-x-5-5-5/7-x-7-x-7-x-7-x-7-7-7-|
A|-5-x-5-x-5-x-5-x-5-5-5/7-x-7-x-7-x-7-x-7-7-7-|
E|-3-x-3-x-3-x-3-x-3-3-3/5-x-5-x-5-x-5-x-5-5-5-|#/8t2##/8t1#
#9t1#  After chorus play x4
#9t2#e|---------------------|
B|---------------------|
G|---5-5-5-5---7-7-7-7-|
D|-7-5-5-5-5-5-7-7-7-7-|
A|-7-3-3-3-3-5-5-5-5-5-|
E|-5---------3---------|#/9t2##/9t1#
#10t1#  Verse 
#10t2#e|-----------------------------------------|
B|-----------------------------------------|
G|-------------------------------------7-7-|
D|-5-5-5-5-5-5-5-5-5-5-5-5-5-5-5-5-5-5-7-7-|
A|-3-3-3-3-3-3-3-3-3-3-3-3-3-3-3-3-3-3-5-5-|
E|-----------------------------------------|#/10t2##/10t1#
#11t1#  Continued play x2
#11t2#e|---------------------|
B|---------------------|
G|---5-5-5-5---7-7-7-7-|
D|-7-5-5-5-5-5-7-7-7-7-|
A|-7-3-3-3-3-5-5-5-5-5-|
E|-5---------3---------|#/11t2##/11t1#
#12t1#  Continued
#12t2#e|-----------------------------------------|
B|-----------------------------------------|
G|-------------------------------------7-7-|
D|-5-5-5-5-5-5-5-5-5-5-5-5-5-5-5-5-5-5-7-7-|
A|-3-3-3-3-3-3-3-3-3-3-3-3-3-3-3-3-3-3-5-5-|
E|-----------------------------------------|#/12t2##/12t1#
#13t1#  Continued play x2
#13t2#e|---------------------|
B|---------------------|
G|---5-5-5-5---7-7-7-7-|
D|-7-5-5-5-5-5-7-7-7-7-|
A|-7-3-3-3-3-5-5-5-5-5-|
E|-5---------3---------|#/13t2##/13t1#
#14t1#  Continued
#14t2#e|---------------------------------------------|
B|---------------------------------------------|
G|-------------------------------------7-7-7-7-|
D|-5-5-5-5-5-5-5-5-5-5-5-5-5-5-5-5-5-5-7-7-7-7-|
A|-3-3-3-3-3-3-3-3-3-3-3-3-3-3-3-3-3-3-5-5-5-5-|
E|---------------------------------------------|#/14t2##/14t1#
#15t1#  Continued play x2
#15t2#e|---------------------|
B|---------------------|
G|---5-5-5-5---7-7-7-7-|
D|-7-5-5-5-5-5-7-7-7-7-|
A|-7-3-3-3-3-5-5-5-5-5-|
E|-5---------3---------|#/15t2##/15t1#
#16t1#  Chorus play x2
#16t2#e|---------------------------------------------|
B|---------------------------------------------|
G|---------------------------------------------|
D|-5-x-5-x-5-x-5-x-5-5-5/7-x-7-x-7-x-7-x-7-7-7-|
A|-5-x-5-x-5-x-5-x-5-5-5/7-x-7-x-7-x-7-x-7-7-7-|
E|-3-x-3-x-3-x-3-x-3-3-3/5-x-5-x-5-x-5-x-5-5-5-|#/16t2##/16t1#
#17t1#  Bridge play x8 I don't know the solo so you'll have to tab it your self
#17t2#e|---------------------|
B|---------------------|
G|---5-5-5-5---7-7-7-7-|
D|-7-5-5-5-5-5-7-7-7-7-|
A|-7-3-3-3-3-5-5-5-5-5-|
E|-5---------3---------|#/17t2##/17t1#
#18t1#  Verse 
#18t2#e|-----------------------------------------|
B|-----------------------------------------|
G|-------------------------------------7-7-|
D|-5-5-5-5-5-5-5-5-5-5-5-5-5-5-5-5-5-5-7-7-|
A|-3-3-3-3-3-3-3-3-3-3-3-3-3-3-3-3-3-3-5-5-|
E|-----------------------------------------|#/18t2##/18t1#
#19t1#  Continued play x2
#19t2#e|---------------------|
B|---------------------|
G|---5-5-5-5---7-7-7-7-|
D|-7-5-5-5-5-5-7-7-7-7-|
A|-7-3-3-3-3-5-5-5-5-5-|
E|-5---------3---------|#/19t2##/19t1#
#20t1#  Continued
#20t2#e|-----------------------------------------|
B|-----------------------------------------|
G|-------------------------------------7-7-|
D|-5-5-5-5-5-5-5-5-5-5-5-5-5-5-5-5-5-5-7-7-|
A|-3-3-3-3-3-3-3-3-3-3-3-3-3-3-3-3-3-3-5-5-|
E|-----------------------------------------|#/20t2##/20t1#
#21t1#  Continued play x2
#21t2#e|---------------------|
B|---------------------|
G|---5-5-5-5---7-7-7-7-|
D|-7-5-5-5-5-5-7-7-7-7-|
A|-7-3-3-3-3-5-5-5-5-5-|
E|-5---------3---------|#/21t2##/21t1#
#22t1#  Chorus play x2
#22t2#e|---------------------------------------------|
B|---------------------------------------------|
G|---------------------------------------------|
D|-5-x-5-x-5-x-5-x-5-5-5/7-x-7-x-7-x-7-x-7-7-7-|
A|-5-x-5-x-5-x-5-x-5-5-5/7-x-7-x-7-x-7-x-7-7-7-|
E|-3-x-3-x-3-x-3-x-3-3-3/5-x-5-x-5-x-5-x-5-5-5-|#/22t2##/22t1#
#23t1#  Outro play x2
#23t2#e|---------------------|
B|---------------------|
G|---5-5-5-5---7-7-7-7-|
D|-7-5-5-5-5-5-7-7-7-7-|
A|-7-3-3-3-3-5-5-5-5-5-|
E|-5---------3---------|#/23t2##/23t1#
#24t1#  Finish on 
#24t2#e|---|
B|---|
G|---|
D|-7-|
A|-7-|
E|-5-|#/24t2##/24t1#

There it is hope you enjoy it i'll see ya later.

| /  slide up
| \  slide down
| h  hammer-on
| p  pull-off
| ~  vibrato
| +  harmonic
| x  Mute note
============================================================================
Composição: Colaboração e revisão: