Sounds Of Laughter

Tsol

Tom: G
#1t1#Intro:
#1t2#-----------------------------------|----------------------------------
-----------------------------------|----------------------------------
-4------4/5-------5----------7-----|-4------4/5-------5----------7----
-4------4/5-------5-7------7-7-----|-4------4/5-------5-7------7-7----
-2------2/3-------3-7------7-5-----|-2------2/3-------3-7------7-5----
--------------------5------5-------|--------------------5------5------#/1t2##/1t1#


#2t1##2t2#-----------------------------------|----------------------------------
-----------------------------------|----------------------------------
-4------4/5-------5----------7-----|-4------4/5-------5----------7----
-4------4/5-------5-7------7-7-----|-4------4/5-------5-7------7-7----
-2------2/3-------3-7------7-5-----|-2------2/3-------3-7------7-5----
--------------------5------5-------|--------------------5------5------#/2t2##/2t1#


#3t1#Verse:
#3t2#-------------------------------------------------|
-------------------------------------------------|
-4--4-4-4-4--5--5-5-5-5--------------7--7-7-7-7--|
-4--4-4-4-4--5--5-5-5-5--7--7-7-7-7--7--7-7-7-7--|
-2--2-2-2-2--3--3-3-3-3--7--7-7-7-7--5--5-5-5-5--|
-------------------------5--5-5-5-5--------------|#/3t2##/3t1#


#4t1##4t2#------------------------------10----10----10-----|
-----7---------8------10-8-7--10----10----10-----|
---7---7------8--8---------------12^---12^-------|
-9-------9--10-----------------------------------|
-------------------------------------------------|
-------------------------------------------------|#/4t2##/4t1#


#5t1##5t2#-------------------------------------------------|
-------------------------------------------------|
-4--4-4-4-4--5--5-5-5-5--------------7--7-7-7-7--|
-4--4-4-4-4--5--5-5-5-5--7--7-7-7-7--7--7-7-7-7--|
-2--2-2-2-2--3--3-3-3-3--7--7-7-7-7--5--5-5-5-5--|
-------------------------5--5-5-5-5--------------|#/5t2##/5t1#


#6t1##6t2#------------------------------10----10----10-----|
-----7---------8------10-8-7--10----10----10-----|
---7---7------8--8---------------12^---12^-------|
-9-------9--10-----------------------------------|
-------------------------------------------------|
-------------------------------------------------|#/6t2##/6t1#


#7t1#Chorus:
#7t2#----------------------------------------------------------------------|
----------------------------------------------------------------------|
-6-6--6-6-6--9-9--9-9-9--6-6--6-6-6--9-9--9-9-9--6-6--6-6-6--7-7--7-7-|
-6-6--6-6-6--9-9--9-9-9--6-6--6-6-6--9-9--9-9-9--6-6--6-6-6--7-7--7-7-|
-4-4--4-4-4--7-7--7-7-7--4-4--4-4-4--7-7--7-7-7--4-4--4-4-4--7-7--7-7-|
----------------------------------------------------------------------|#/7t2##/7t1#


#8t1##8t2#---------------------------------------------------------------------|
---------------------------------------------------------------------|
-11-11-11-11-11--7-7--7-7-7-7----11-11--11-11-11--7-7--7-7-7-7-------|
-11-11-11-11-11--7-7--7-7-7-7----11-11--11-11-11--7-7--7-7-7-7-------|
-9--9--9--9--9---5-5--5-5-5-5----9--9---9--9--9---5-5--5-5-5-5-------|
---------------------------------------------------------------------|#/8t2##/8t1#


#9t1##9t2#------------------------------|
------------------------------|
-11-11-11-11-11--7-7--7-7-7-7-|
-11-11-11-11-11--7-7--7-7-7-7-|
-9--9--9--9--9---5-5--5-5-5-5-|
------------------------------|#/9t2##/9t1#


#10t1#Second Intro:
#10t2#-----------------------------------|----------------------------------
-----------------------------------|----------------------------------
-4------4/5-------5/6------6-7-----|-4------4/5-------5/6------6-7----
-4------4/5-------5/6------6-7-----|-4------4/5-------5/6------6-7---
-2------2/3-------3/4------4-5-----|-2------2/3-------3/4------4-5----
-----------------------------------|----------------------------------#/10t2##/10t1#


#11t1##11t2#-----------------------------------|----------------------------------
-----------------------------------|----------------------------------
-4------4/5-------5/6------6-7-----|-4------4/5-------5/6------6-7----
-4------4/5-------5/6------6-7-----|-4------4/5-------5/6------6-7---
-2------2/3-------3/4------4-5-----|-2------2/3-------3/4------4-5----
-----------------------------------|----------------------------------#/11t2##/11t1#


#12t1#Verse:
#12t2#-------------------------------------------------|
-------------------------------------------------|
-4--4-4-4-4--5--5-5-5-5--------------7--7-7-7-7--|
-4--4-4-4-4--5--5-5-5-5--7--7-7-7-7--7--7-7-7-7--|
-2--2-2-2-2--3--3-3-3-3--7--7-7-7-7--5--5-5-5-5--|
-------------------------5--5-5-5-5--------------|#/12t2##/12t1#


#13t1##13t2#-------------------------------------------------|
-------------------------------------------------|
-4--4-4-4-4--5--5-5-5-5--------------7--7-7-7-7--|
-4--4-4-4-4--5--5-5-5-5--7--7-7-7-7--7--7-7-7-7--|
-2--2-2-2-2--3--3-3-3-3--7--7-7-7-7--5--5-5-5-5--|
-------------------------5--5-5-5-5--------------|#/13t2##/13t1#


#14t1##14t2#-------------------------------------------------|
-------------------------------------------------|
-4--4-4-4-4--5--5-5-5-5--------------7--7-7-7-7--|
-4--4-4-4-4--5--5-5-5-5--7--7-7-7-7--7--7-7-7-7--|
-2--2-2-2-2--3--3-3-3-3--7--7-7-7-7--5--5-5-5-5--|
-------------------------5--5-5-5-5--------------|#/14t2##/14t1#


#15t1##15t2#-------------------------------------------------|
-------------------------------------------------|
-4--4-4-4-4--5--5-5-5-5--------------7--7-7-7-7--|
-4--4-4-4-4--5--5-5-5-5--7--7-7-7-7--7--7-7-7-7--|
-2--2-2-2-2--3--3-3-3-3--7--7-7-7-7--5--5-5-5-5--|
-------------------------5--5-5-5-5--------------|#/15t2##/15t1#


#16t1#Chorus:
#16t2#----------------------------------------------------------------------|
----------------------------------------------------------------------|
-6-6--6-6-6--9-9--9-9-9--6-6--6-6-6--9-9--9-9-9--6-6--6-6-6--7-7--7-7-|
-6-6--6-6-6--9-9--9-9-9--6-6--6-6-6--9-9--9-9-9--6-6--6-6-6--7-7--7-7-|
-4-4--4-4-4--7-7--7-7-7--4-4--4-4-4--7-7--7-7-7--4-4--4-4-4--7-7--7-7-|
----------------------------------------------------------------------|#/16t2##/16t1#


#17t1##17t2#---------------------------------------------------------------------|
---------------------------------------------------------------------|
-11-11-11-11-11--7-7--7-7-7-7----11-11--11-11-11--7-7--7-7-7-7-------|
-11-11-11-11-11--7-7--7-7-7-7----11-11--11-11-11--7-7--7-7-7-7-------|
-9--9--9--9--9---5-5--5-5-5-5----9--9---9--9--9---5-5--5-5-5-5-------|
---------------------------------------------------------------------|#/17t2##/17t1#


#18t1##18t2#------------------------------|
------------------------------|
-11-11-11-11-11--7-7--7-7-7-7-|
-11-11-11-11-11--7-7--7-7-7-7-|
-9--9--9--9--9---5-5--5-5-5-5-|
------------------------------|#/18t2##/18t1#


Bridge:

#19t1##19t2#------------------------------------------------------------|
------------------------------------------------------------|
-6-6-6--6-6-6--6-6-6--6-6-6---4-4-4--4-4-4--9-9-9--9-9-9----|
-6-6-6--6-6-6--6-6-6--6-6-6---4-4-4--4-4-4--9-9-9--9-9-9----|
-4-4-4--4-4-4--4-4-4--4-4-4---2-2-2--2-2-2--7-7-7--7-7-7----|
------------------------------------------------------------|#/19t2##/19t1#


#20t1##20t2#-----------------------------|
-----------------------------|
-----------------------------|
-7-7-7--7-7-7--7-7-7--7-7-7--|
-7-7-7--7-7-7--7-7-7--7-7-7--|
-5-5-5--5-5-5--5-5-5--5-5-5--|#/20t2##/20t1#



#21t1##21t2#------------------------------------------------------------|
------------------------------------------------------------|
-6-6-6--6-6-6--6-6-6--6-6-6---4-4-4--4-4-4--9-9-9--9-9-9----|
-6-6-6--6-6-6--6-6-6--6-6-6---4-4-4--4-4-4--9-9-9--9-9-9----|
-4-4-4--4-4-4--4-4-4--4-4-4---2-2-2--2-2-2--7-7-7--7-7-7----|
------------------------------------------------------------|#/21t2##/21t1#


#22t1##22t2#-----------------------------|
-----------------------------|
-----------------------------|
-7-7-7--7-7-7--7-7-7--7-7-7--|
-7-7-7--7-7-7--7-7-7--7-7-7--|
-5-5-5--5-5-5--5-5-5--5-5-5--|#/22t2##/22t1#


#23t1#Third Intro:
#23t2#-----------------------------------|----------------------------------
-----------------------------------|----------------------------------
-4------4/5-------5----------7-----|-4------4/5-------5----------7----
-4------4/5-------5-7------7-7-----|-4------4/5-------5-7------7-7----
-2------2/3-------3-7------7-5-----|-2------2/3-------3-7------7-5----
--------------------5------5-------|--------------------5------5------#/23t2##/23t1#


#24t1##24t2#-----------------------------------|----------------------------------
-----------------------------------|----------------------------------
-4------4/5-------5----------7-----|-4------4/5-------5----------7----
-4------4/5-------5-7------7-7-----|-4------4/5-------5-7------7-7----
-2------2/3-------3-7------7-5-----|-2------2/3-------3-7------7-5----
--------------------5------5-------|--------------------5------5------#/24t2##/24t1#


#25t1#Verse:
#25t2#-------------------------------------------------|
-------------------------------------------------|
-4--4-4-4-4--5--5-5-5-5--------------7--7-7-7-7--|
-4--4-4-4-4--5--5-5-5-5--7--7-7-7-7--7--7-7-7-7--|
-2--2-2-2-2--3--3-3-3-3--7--7-7-7-7--5--5-5-5-5--|
-------------------------5--5-5-5-5--------------|#/25t2##/25t1#


#26t1##26t2#------------------------------10----10----10-----|
-----7---------8------10-8-7--10----10----10-----|
---7---7------8--8---------------12^---12^-------|
-9-------9--10-----------------------------------|
-------------------------------------------------|
-------------------------------------------------|#/26t2##/26t1#


#27t1##27t2#-------------------------------------------------|
-------------------------------------------------|
-4--4-4-4-4--5--5-5-5-5--------------7--7-7-7-7--|
-4--4-4-4-4--5--5-5-5-5--7--7-7-7-7--7--7-7-7-7--|
-2--2-2-2-2--3--3-3-3-3--7--7-7-7-7--5--5-5-5-5--|
-------------------------5--5-5-5-5--------------|#/27t2##/27t1#


#28t1##28t2#------------------------------10----10----10-----|
-----7---------8------10-8-7--10----10----10-----|
---7---7------8--8---------------12^---12^-------|
-9-------9--10-----------------------------------|
-------------------------------------------------|
-------------------------------------------------|#/28t2##/28t1#


#29t1#Chorus:
#29t2#----------------------------------------------------------------------|
----------------------------------------------------------------------|
-6-6--6-6-6--9-9--9-9-9--6-6--6-6-6--9-9--9-9-9--6-6--6-6-6--7-7--7-7-|
-6-6--6-6-6--9-9--9-9-9--6-6--6-6-6--9-9--9-9-9--6-6--6-6-6--7-7--7-7-|
-4-4--4-4-4--7-7--7-7-7--4-4--4-4-4--7-7--7-7-7--4-4--4-4-4--7-7--7-7-|
----------------------------------------------------------------------|#/29t2##/29t1#


#30t1##30t2#---------------------------------------------------------------------|
---------------------------------------------------------------------|
-11-11-11-11-11--7-7--7-7-7-7----11-11--11-11-11--7-7--7-7-7-7-------|
-11-11-11-11-11--7-7--7-7-7-7----11-11--11-11-11--7-7--7-7-7-7-------|
-9--9--9--9--9---5-5--5-5-5-5----9--9---9--9--9---5-5--5-5-5-5-------|
---------------------------------------------------------------------|#/30t2##/30t1#


#31t1##31t2#-------------------|
-------------------|
-11-11-11-11-11-7--|
-11-11-11-11-11-7--|
-9--9--9--9--9--5--|
-------------------|#/31t2##/31t1#
Composição: Colaboração e revisão: