Superficial Love

Tsol

Tom: G
#1t1#Intro:
#1t2#---------------------------|---------------------------|
---------------------------|---------------------------|
------10-10-10--9-9-9--7---|------10-10-10--9-9-9--7---|
-9-9--10-10-10--9-9-9--7-7-|-9-9--10-10-10--9-9-9--7-7-|
-9-9--8--8--8---7-7-7--5-7-|-9-9--8--8--8---7-7-7--5-7-|
-7-7---------------------5-|-7-7---------------------5-|#/1t2##/1t1#

#2t1##2t2#---------------------------|---------------------------|
---------------------------|---------------------------|
------10-10-10--9-9-9--7---|------10-10-10--9-9-9--7---|
-9-9--10-10-10--9-9-9--7-7-|-9-9--10-10-10--9-9-9--7-7-|
-9-9--8--8--8---7-7-7--5-7-|-9-9--8--8--8---7-7-7--5-7-|
-7-7---------------------5-|-7-7---------------------5-|#/2t2##/2t1#

#3t1#Verse:
#3t2#---------------------------|---------------------------|
---------------------------|---------------------------|
------10-10-10--9-9-9--7---|------10-10-10--9-9-9--7---|
-9-9--10-10-10--9-9-9--7-7-|-9-9--10-10-10--9-9-9--7-7-|
-9-9--8--8--8---7-7-7--5-7-|-9-9--8--8--8---7-7-7--5-7-|
-7-7---------------------5-|-7-7---------------------5-|#/3t2##/3t1#

#4t1##4t2#---------------------------|---------------------------|
---------------------------|---------------------------|
------10-10-10--9-9-9--7---|------10-10-10--9-9-9--7---|
-9-9--10-10-10--9-9-9--7-7-|-9-9--10-10-10--9-9-9--7-7-|
-9-9--8--8--8---7-7-7--5-7-|-9-9--8--8--8---7-7-7--5-7-|
-7-7---------------------5-|-7-7---------------------5-|#/4t2##/4t1#

#5t1#Chorus:
#5t2#-------------------------|-------------------------|
-------------------------|-------------------------|
-9-9/(10)-10-------------|-9-9/(10)-10-------------|
-9-9/(10)-10--12-12--13--|-9-9/(10)-10--12-12--13--|
-7-7/(8)--8---12-12--13--|-7-7/(8)--8---12-12--13--|
--------------10-10--11--|--------------10-10--11--|#/5t2##/5t1#


#6t1##6t2#-------------------------|---------------9------9--|
-------------------------|---------------9------9--|
-9-9/(10)-10-------------|-9-9/(10)-10-----11^-----|
-9-9/(10)-10-------------|-9-9/(10)-10--12-12--13--|
-7-7/(8)--8--------------|-7-7/(8)--8---12-12--13--|
-------------------------|--------------10-10--11--|#/6t2##/6t1#


#7t1#Verse:
#7t2#---------------------------|---------------------------|
---------------------------|---------------------------|
------10-10-10--9-9-9--7---|------10-10-10--9-9-9--7---|
-9-9--10-10-10--9-9-9--7-7-|-9-9--10-10-10--9-9-9--7-7-|
-9-9--8--8--8---7-7-7--5-7-|-9-9--8--8--8---7-7-7--5-7-|
-7-7---------------------5-|-7-7---------------------5-|#/7t2##/7t1#

#8t1##8t2#---------------------------|---------------------------|
---------------------------|---------------------------|
------10-10-10--9-9-9--7---|------10-10-10--9-9-9--7---|
-9-9--10-10-10--9-9-9--7-7-|-9-9--10-10-10--9-9-9--7-7-|
-9-9--8--8--8---7-7-7--5-7-|-9-9--8--8--8---7-7-7--5-7-|
-7-7---------------------5-|-7-7---------------------5-|#/8t2##/8t1#

#9t1#Bridge:
#9t2#----------------------|----------------------|----------------------|
----------------------|----------------------|----------------------|
----10\---------------|----10\---------------|----10\---------------|
-9--10\---------------|-9--10\---------------|-9--10\---------------|
-9--8\---0-0-0-0-0-0-0|-9--8\---0-0-0-0-0-0-0|-9--8\---0-0-0-0-0-0-0|
-7--------------------|-7--------------------|-7--------------------|#/9t2##/9t1#

#10t1##10t2#----------------------|
----------------------|
----------------------|
-9--10\---------------|
-9--8\---0-0-0-0-0-0-0|
-7--------------------|#/10t2##/10t1#


Interlude:
(Note:  In the beginning, its Bass Only, so here's the bass part 
arranged 
for guitar, and then the guitar:)

#11t1##11t2#-----------------------------------------------|
-----------------------------------------------|
-----------------------------------------------|
------8-8-8-7-7-7--5---------8-8-8-7-7-7--5----|
--7-7----------------5---7-7----------------5--|#/11t2##/11t1#

#12t1#Bridge #2:
#12t2#---------------9------9--|---------------9------9--|
---------------9------9--|---------------9------9--|
-9-9/(10)-10-----11^-----|-9-9/(10)-10-----11^-----|
-9-9/(10)-10-------------|-9-9/(10)-10--12-12--13--|
-7-7/(8)--8--------------|-7-7/(8)--8---12-12--13--|
-------------------------|--------------10-10--11--|#/12t2##/12t1#

#13t1##13t2#---------------9------9--|---------------9------9--|
---------------9------9--|---------------9------9--|
-9-9/(10)-10-----11^-----|-9-9/(10)-10-----11^-----|
-9-9/(10)-10-------------|-9-9/(10)-10--12-12--13--|
-7-7/(8)--8--------------|-7-7/(8)--8---12-12--13--|
-------------------------|--------------10-10--11--|#/13t2##/13t1#

#14t1#Verse:
#14t2#---------------------------|---------------------------|
---------------------------|---------------------------|
------10-10-10--9-9-9--7---|------10-10-10--9-9-9--7---|
-9-9--10-10-10--9-9-9--7-7-|-9-9--10-10-10--9-9-9--7-7-|
-9-9--8--8--8---7-7-7--5-7-|-9-9--8--8--8---7-7-7--5-7-|
-7-7---------------------5-|-7-7---------------------5-|#/14t2##/14t1#

#15t1##15t2#---------------------------|-------------|
---------------------------|-------------|
------10-10-10--9-9-9--7---|------10\----|
-9-9--10-10-10--9-9-9--7-7-|-9-9--10\----|
-9-9--8--8--8---7-7-7--5-7-|-9-9--8\-----|
-7-7---------------------5-|-7-7---------|#/15t2##/15t1#
Composição: Colaboração e revisão: