Tired Of Life

Tsol

Tom: G
#1t1#Intro:  (Bassist plays first)
#1t2#--------------------------------------------------------------------|
--------------------------------------------------------------------|
--------------------------------------------------------------------|
--------------------------------------------------------------------|
---7---7---7---7---7---7---7---7---7---7---7---7---7---7---7---7----|
-5---5---5---5---5---5---5---5---5---5---5---5---5---5---5---5------|#/1t2##/1t1#

Palm Mute________________________________________________________|


#2t1##2t2#--------------------------------------------------------------------|
--------------------------------------------------------------------|
--------------------------------------------------------------------|
-7--------------------------------7---------------------------------|
-7------------LET RING------------7---------------------------------|
-5--------------------------------5---------------------------------|#/2t2##/2t1#


#3t1#Verse:
#3t2#--------------------------------------------------------------------|
--------------------------------------------------------------------|
--------------------------------------------------------------------|
-7--------------------------------7---------------------------------|
-7------------LET RING------------7---------------------------------|
-5--------------------------------5---------------------------------|#/3t2##/3t1#


#4t1##4t2#--------------------------------------------------------------------|
--------------------------------------------------------------------|
--------------------------------------------------------------------|
-7--------------------------------7---------------------------------|
-7------------LET RING------------7---------------------------------|
-5--------------------------------5---------------------------------|#/4t2##/4t1#


#5t1##5t2#--------------------------------------------------------------------|
--------------------------------------------------------------------|
--------------------------------------------------------------------|
-7--------------------------------7---------------------------------|
-7------------LET RING------------7---------------------------------|
-5--------------------------------5---------------------------------|#/5t2##/5t1#


#6t1##6t2#--------------------------------------------------------------------|
--------------------------------------------------------------------|
--------------------------------------------------------------------|
-7--------------------------------7---------------------------------|
-7------------LET RING------------7---------------------------------|
-5--------------------------------5---------------------------------|#/6t2##/6t1#


#7t1#Chorus:
#7t2#----5---5---5---5---3-3-3--0--3--0--3--0--|
-5---5----5---5-----3-3-3--0--3--0--3--0--|
------------------------------------------|
------------------------------------------|
------------------------------------------|
------------------------------------------|#/7t2##/7t1#


#8t1##8t2#----5---5---5---5---3-3-3--0--3--0--3--0--|
-5---5----5---5-----3-3-3--0--3--0--3--0--|
------------------------------------------|
------------------------------------------|
------------------------------------------|
------------------------------------------|#/8t2##/8t1#


#9t1##9t2#----5---5---5---5---3-3-3--0--3--0--3--0--|
-5---5----5---5-----3-3-3--0--3--0--3--0--|
------------------------------------------|
------------------------------------------|
------------------------------------------|
------------------------------------------|#/9t2##/9t1#


#10t1##10t2#----5---5---5---5---3-3-3--0--3--0--3--0--|
-5---5----5---5-----3-3-3--0--3--0--3--0--|
------------------------------------------|
------------------------------------------|
------------------------------------------|
------------------------------------------|#/10t2##/10t1#


#11t1##11t2#--------------------------------------------------------------------|
--------------------------------------------------------------------|
--------------------------------------------------------------------|
-7--------------------------------7---------------------------------|
-7------------LET RING------------7---------------------------------|
-5--------------------------------5---------------------------------|#/11t2##/11t1#


#12t1#Verse:
#12t2#--------------------------------------------------------------------|
--------------------------------------------------------------------|
--------------------------------------------------------------------|
-7--------------------------------7---------------------------------|
-7------------LET RING------------7---------------------------------|
-5--------------------------------5---------------------------------|#/12t2##/12t1#


#13t1##13t2#--------------------------------------------------------------------|
--------------------------------------------------------------------|
--------------------------------------------------------------------|
-7--------------------------------7---------------------------------|
-7------------LET RING------------7---------------------------------|
-5--------------------------------5---------------------------------|#/13t2##/13t1#


#14t1##14t2#--------------------------------------------------------------------|
--------------------------------------------------------------------|
--------------------------------------------------------------------|
-7--------------------------------7---------------------------------|
-7------------LET RING------------7---------------------------------|
-5--------------------------------5---------------------------------|#/14t2##/14t1#


#15t1##15t2#--------------------------------------------------------------------|
--------------------------------------------------------------------|
--------------------------------------------------------------------|
-7--------------------------------7---------------------------------|
-7------------LET RING------------7---------------------------------|
-5--------------------------------5---------------------------------|#/15t2##/15t1#


2nd Chorus:

Just go for it, improvise a solo, or just go double time if you like.
Composição: Colaboração e revisão: