Triangle

Tsol

Tom: G
#1t1#Intro:
#1t2#------0------0------0-----0----|------0------0------0----0-----|
-------0------1------2-----1---|-------0------1------2---1-----|
----1---1--2---2--3---3--2--2--|----1---1--2---2--3---3--2-----|
----2------3------4------3-----|----2------3------4------3-----|
----2------3------4------3-----|----2------3------4------3-----|
----0--------------------------|----0--------------------------|#/1t2##/1t1#


#2t1##2t2#---0--3-0-------------|---0--3-0-------------|
---0--0-0-------------|---0--0-0-------------|
---0--0-0--3-3-3--3-3-|---0--0-0--3-3-3--3-3-|
---2-------2-2-2--2-2-|---2-------2-2-2--2-2-|
---2-------3-3-3--3-3-|---2-------3-3-3--3-3-|
-0--------------------|-0--------------------|#/2t2##/2t1#


#3t1#Verse:
#3t2#---0--3-0-------------|---0--3-0-------------|
---0--0-0-------------|---0--0-0-------------|
---0--0-0--3-3-3--3-3-|---0--0-0--3-3-3--3-3-|
---2-------2-2-2--2-2-|---2-------2-2-2--2-2-|
---2-------3-3-3--3-3-|---2-------3-3-3--3-3-|
-0--------------------|-0--------------------|#/3t2##/3t1#


#4t1##4t2#---0--3-0-------------|---0--3-0-------------|
---0--0-0-------------|---0--0-0-------------|
---0--0-0--3-3-3--3-3-|---0--0-0--3-3-3--3-3-|
---2-------2-2-2--2-2-|---2-------2-2-2--2-2-|
---2-------3-3-3--3-3-|---2-------3-3-3--3-3-|
-0--------------------|-0--------------------|#/4t2##/4t1#


#5t1##5t2#---------------------------------------------|
---------------------------------------------|
-5-5--5-5-5----7-7--7-7-7-7------------------|
-5-5--5-5-5----7-7--7-7-7-7------------------|
-3-3--3-3-3----5-5--5-5-5-5------------------|
---------------------------------------------|#/5t2##/5t1#


#6t1##6t2#---0--3-0-------------|---0--3-0-------------|
---0--0-0-------------|---0--0-0-------------|
---0--0-0--3-3-3--3-3-|---0--0-0--3-3-3--3-3-|
---2-------2-2-2--2-2-|---2-------2-2-2--2-2-|
---2-------3-3-3--3-3-|---2-------3-3-3--3-3-|
-0--------------------|-0--------------------|#/6t2##/6t1#


#7t1##7t2#---0--3-0-------------|---0--3-0-------------|
---0--0-0-------------|---0--0-0-------------|
---0--0-0--3-3-3--3-3-|---0--0-0--3-3-3--3-3-|
---2-------2-2-2--2-2-|---2-------2-2-2--2-2-|
---2-------3-3-3--3-3-|---2-------3-3-3--3-3-|
-0--------------------|-0--------------------|#/7t2##/7t1#


#8t1##8t2#---------------------------------------------|
---------------------------------------------|
-5-5--5-5-5----7-7--7-7-7-7------------------|
-5-5--5-5-5----7-7--7-7-7-7------------------|
-3-3--3-3-3----5-5--5-5-5-5------------------|
---------------------------------------------|#/8t2##/8t1#


#9t1#Pre-Chorus:
#9t2#--2-2--2-2-2-------3-5-3--|
--3-3--3-3-3-----3-3-3-3--|
--4-4--4-4-4--3--3-3-3-3--|
--4-4--4-4-4--5--5--------|
--2-2--2-2-2--5--5--------|
--------------3-----------|#/9t2##/9t1#


#10t1##10t2#--2-2--2-2-2-------3-5-3--|
--3-3--3-3-3-----3-3-3-3--|
--4-4--4-4-4--3--3-3-3-3--|
--4-4--4-4-4--5--5--------|
--2-2--2-2-2--5--5--------|
--------------3-----------|#/10t2##/10t1#


#11t1##11t2#--2-2--2-2-2-------3-5-3--|
--3-3--3-3-3-----3-3-3-3--|
--4-4--4-4-4--3--3-3-3-3--|
--4-4--4-4-4--5--5--------|
--2-2--2-2-2--5--5--------|
--------------3-----------|#/11t2##/11t1#


#12t1##12t2#--------------------------|
--------------------------|
------------/13-13-13-13--|
-4-4-4-4-4-4/13-13-13-13--|
-4-4-4-4-4-4/11-11-11-11--|
-2-2-2-2-2-2--------------|#/12t2##/12t1#
Palm Mute___|

#13t1#Chorus:
#13t2#------------------------------------------------------------|
------------------------------------------------------------|
-0-0--0-0-0--0-0-0-0--0-0-0--2-2--2-2-2--2-2-2-2--2-2-2-----|
-2-2--2-2-2--2-2-2-2--2-2-2--4-4--4-4-4--4-4-4-4--4-4-4-----|
-2-2--2-2-2--2-2-2-2--2-2-2--4-4--4-4-4--4-4-4-4--4-4-4-----|
-0-0--0-0-0--0-0-0-0--0-0-0--2-2--2-2-2--2-2-2-2--2-2-2-----|#/13t2##/13t1#


#14t1##14t2#------------------------------------------------------------|
------------------------------------------------------------|
-0-0--0-0-0--0-0-0-0--0-0-0--2-2--2-2-2--2-2-2-2--2-2-2-----|
-2-2--2-2-2--2-2-2-2--2-2-2--4-4--4-4-4--4-4-4-4--4-4-4-----|
-2-2--2-2-2--2-2-2-2--2-2-2--4-4--4-4-4--4-4-4-4--4-4-4-----|
-0-0--0-0-0--0-0-0-0--0-0-0--2-2--2-2-2--2-2-2-2--2-2-2-----|#/14t2##/14t1#


#15t1##15t2#------------------------------------------------------------|
------------------------------------------------------------|
-0-0--0-0-0--0-0-0-0--0-0-0--2-2--2-2-2--2-2-2-2--2-2-2-----|
-2-2--2-2-2--2-2-2-2--2-2-2--4-4--4-4-4--4-4-4-4--4-4-4-----|
-2-2--2-2-2--2-2-2-2--2-2-2--4-4--4-4-4--4-4-4-4--4-4-4-----|
-0-0--0-0-0--0-0-0-0--0-0-0--2-2--2-2-2--2-2-2-2--2-2-2-----|#/15t2##/15t1#


#16t1##16t2#------------------------------------------------------------|
------------------------------------------------------------|
-0-0--0-0-0--0-0-0-0--0-0-0--2-2--2-2-2--2-2-2-2--2-2-2-----|
-2-2--2-2-2--2-2-2-2--2-2-2--4-4--4-4-4--4-4-4-4--4-4-4-----|
-2-2--2-2-2--2-2-2-2--2-2-2--4-4--4-4-4--4-4-4-4--4-4-4-----|
-0-0--0-0-0--0-0-0-0--0-0-0--2-2--2-2-2--2-2-2-2--2-2-2-----|#/16t2##/16t1#


#17t1#Guitar Solo:
#17t2#------------------------------------------------------------|
------------------------------------------------------------|
--------------3-3-3--3-3-------------3-3-3--3-3-------------|
--------------2-2-2--2-2-----------0-2-2-2--2-2-------------|
---------2\0----------------------2-------------------------|
-0-0-0-0------------------0-0-0-0---------------------------|#/17t2##/17t1#
PM______|              PM________|


#18t1##18t2#------------------------------------------------------------|
------------------------------------------------------------|
------------3-3-3--3-3--------------------------------------|
------------2-2-2--2-2--------------0----------------0-2----|
--------2\0------------------------2-----------0-1-2--------|
-0-0-0-0-------------------0-0-0-0----3^^^^^^^^-------------|#/18t2##/18t1#
PM______|                PM_______|

#19t1##19t2#---------------------------------------------|
---------------------------------------------|
-5-5--5-5-5----7-7--7-7-7-7------------------|
-5-5--5-5-5----7-7--7-7-7-7------------------|
-3-3--3-3-3----5-5--5-5-5-5------------------|
---------------------------------------------|#/19t2##/19t1#


#20t1#Verse:
#20t2#---0--3-0-------------|---0--3-0-------------|
---0--0-0-------------|---0--0-0-------------|
---0--0-0--3-3-3--3-3-|---0--0-0--3-3-3--3-3-|
---2-------2-2-2--2-2-|---2-------2-2-2--2-2-|
---2-------3-3-3--3-3-|---2-------3-3-3--3-3-|
-0--------------------|-0--------------------|#/20t2##/20t1#


#21t1##21t2#---0--3-0-------------|---0--3-0-------------|
---0--0-0-------------|---0--0-0-------------|
---0--0-0--3-3-3--3-3-|---0--0-0--3-3-3--3-3-|
---2-------2-2-2--2-2-|---2-------2-2-2--2-2-|
---2-------3-3-3--3-3-|---2-------3-3-3--3-3-|
-0--------------------|-0--------------------|#/21t2##/21t1#


#22t1##22t2#---------------------------------------------|
---------------------------------------------|
-5-5--5-5-5----7-7--7-7-7-7------------------|
-5-5--5-5-5----7-7--7-7-7-7------------------|
-3-3--3-3-3----5-5--5-5-5-5------------------|
---------------------------------------------|#/22t2##/22t1#


#23t1#Chorus:
#23t2#------------------------------------------------------------|
------------------------------------------------------------|
-0-0--0-0-0--0-0-0-0--0-0-0--2-2--2-2-2--2-2-2-2--2-2-2-----|
-2-2--2-2-2--2-2-2-2--2-2-2--4-4--4-4-4--4-4-4-4--4-4-4-----|
-2-2--2-2-2--2-2-2-2--2-2-2--4-4--4-4-4--4-4-4-4--4-4-4-----|
-0-0--0-0-0--0-0-0-0--0-0-0--2-2--2-2-2--2-2-2-2--2-2-2-----|#/23t2##/23t1#


#24t1##24t2#------------------------------------------------------------|
------------------------------------------------------------|
-0-0--0-0-0--0-0-0-0--0-0-0--2-2--2-2-2--2-2-2-2--2-2-2-----|
-2-2--2-2-2--2-2-2-2--2-2-2--4-4--4-4-4--4-4-4-4--4-4-4-----|
-2-2--2-2-2--2-2-2-2--2-2-2--4-4--4-4-4--4-4-4-4--4-4-4-----|
-0-0--0-0-0--0-0-0-0--0-0-0--2-2--2-2-2--2-2-2-2--2-2-2-----|#/24t2##/24t1#


#25t1##25t2#------------------------------------------------------------|
------------------------------------------------------------|
-0-0--0-0-0--0-0-0-0--0-0-0--2-2--2-2-2--2-2-2-2--2-2-2-----|
-2-2--2-2-2--2-2-2-2--2-2-2--4-4--4-4-4--4-4-4-4--4-4-4-----|
-2-2--2-2-2--2-2-2-2--2-2-2--4-4--4-4-4--4-4-4-4--4-4-4-----|
-0-0--0-0-0--0-0-0-0--0-0-0--2-2--2-2-2--2-2-2-2--2-2-2-----|#/25t2##/25t1#


#26t1##26t2#------------------------------------------------------------|
------------------------------------------------------------|
-0-0--0-0-0--0-0-0-0--0-0-0--2-2--2-2-2--2-2-2-2--2-2-2-----|
-2-2--2-2-2--2-2-2-2--2-2-2--4-4--4-4-4--4-4-4-4--4-4-4-----|
-2-2--2-2-2--2-2-2-2--2-2-2--4-4--4-4-4--4-4-4-4--4-4-4-----|
-0-0--0-0-0--0-0-0-0--0-0-0--2-2--2-2-2--2-2-2-2--2-2-2-----|#/26t2##/26t1#


#27t1#Outro:
#27t2#------0------0------0-----0----|
-------0------1------2-----1---|Repeat this over and over again
----1---1--2---2--3---3--2--2--|while it fades out.
----2------3------4------3-----|
----2------3------4------3-----|
----0--------------------------|#/27t2##/27t1#
Composição: Colaboração e revisão: