busca

Tudo Que Sonhamos

Um44k

Tom: C#m
[Intro] C#m  B9  A9

E|----------------------------------------------------|
B|---10/12/10--9-9/7----10/12/10--9-9/7---------------|
G|-9------------------9-------------------------------|
D|----------------------------------------------------|
A|----------------------------------------------------|
E|----------------------------------------------------|

E|----------------------------------------------------|
B|----10/12/10--9-9/7---7-5-7/9-----------------------|
G|--9---------------------------9~--------------------|
D|----------------------------------------------------|
A|----------------------------------------------------|
E|----------------------------------------------------|

[Primeira Parte]
  
C#m              B9               
  E tudo que sonhamos se realizou
A9
 E dentro de você a prova do nosso amor 
C#m                   B9
  E em meio a tanta guerra a gente protegeu
A9
  Sabia desde o inicio que era presente de Deus

C#m  B9     
 Vo_cê mudou 
A9
Aquilo que eu era e me transformou
C#m    B9     A9
 Num' ser melhor, melhor

[Segunda Parte]

 C#m                       B9
Sabe todo o meu passado e tudo que eu fiz 
   A9
E mesmo sendo todo errado não desacreditou de mim 
 C#m                       B9
Sabe todo o meu passado e tudo que eu fiz 
   A9
E mesmo sendo todo errado não desacreditou de mim 

  C#m       B9                A9
Chegou a herança de um novo amor

Ganhei a forca e a coragem de um lutador
C#m                 B9              A9
 Aquele sonho de menino hoje aconteceu 
  C#m       B9                A9
Chegou a herança de um novo amor

Ganhei a forca e a coragem de um lutador
C#m                 B9              A9
 Aquele sonho de menino hoje aconteceu 

[Primeira Parte]
  
C#m              B9               
  E tudo que sonhamos se realizou
A9
 E dentro de você a prova do nosso amor 
C#m                   B9
  E em meio a tanta guerra a gente protegeu
A9
  Sabia desde o inicio que era presente de Deus

C#m  B9     
 Vo_cê mudou 
A9
Aquilo que eu era e me transformou
C#m    B9     A9
 Num' ser melhor, melhor

Clipes