busca

Borboletas

Victor e Leo

Tom: D
[Intro] Bm  A 
        A  Bm  G  A
        
E|-------------------------------5----------|
B|---------------------------------3h5-3-3--|
G|------6h7p6------------6h7p6/4------------|
D|----9-------9--------9--------------------|
A|-7h9----------9--7h9----------------------|
E|------------------------------------------|

E|------------------------------------------|
B|------------------------------------------|
G|------------------------------------------|
D|--7-9-9-7--9-7---9--9-7---9-9-7-----------|
A|-9-------9-----9--------9------9----------|
E|------------------------------------------|

E|------------------------------------------|
B|------------------------------------------|
G|------------------------------------------|
D|---7-7-4--7-4---7--7-4---7-7-4------------|
A|--------7-----7--------7------7-----------|
E|------------------------------------------|

E|------------------------------------------|
B|------------------------------------------|
G|---7-7-6--7-6---7--7-6---7-7-6------------|
D|--------7-----7--------7------7-----------|
A|------------------------------------------|
E|------------------------------------------|

E|------------------------------------------|
B|------------------------------------------|
G|------------------------------------------|
D|-9--9-7-9-7-------------------------------|
A|-9--9-7-9-7-------------------------------|
E|------------------------------------------|

E|---3-3-3----0-0-0---2-2-2-----------------|
B|---3-3-3----2-2-2---2-3-2-----------------|
G|---0-0-0--2-2-2-2---4-4-4-----------------|
D|-0-0-0-0--2-2-2-2---4-4-4-----------------|
A|-2--------0-------2-----------------------|
E|-3----------------------------------------|

[Solo] Bm  D  A  F#  G  A  Bm

E|-14-14-14---15-15-15---14-14-14-14-14-14--|
B|-15-15-15---15-15-15---15-15-15-15-15-15--|
G|------------------------------------------|
D|------------------------------------------|
A|------------------------------------------|
E|------------------------------------------|

E|-15-15-14-14------------------------------|
B|-15-15-15-15------------------------------|
G|------------------------------------------|
D|------------------------------------------|
A|------------------------------------------|
E|------------------------------------------|

E|-14-14-14---15-15-15---14-14-14-14-14-14--|
B|-15-15-15---15-15-15---15-15-15-15-15-15--|
G|------------------------------------------|
D|------------------------------------------|
A|------------------------------------------|
E|------------------------------------------|

E|-15-15-14-14---14-14-14--15-15-15---------|
B|-15-15-15-15---15-15-15--15-15-15---------|
G|------------------------------------------|
D|------------------------------------------|
A|------------------------------------------|
E|------------------------------------------|

E|--14-14-14-14-14-14/12--12-12-12/9--9--9--|
B|--15-15-15-15-15-15/14--14-14-14/11-11-11-|
G|------------------------------------------|
D|------------------------------------------|
A|------------------------------------------|
E|------------------------------------------|

                 G        A       Bm
E|-----------------3-3-3----0-0-0---2-2-2---|
B|-----------------3-3-3----2-2-2---2-3-2---|
G|-----------------0-0-0--2-2-2-2---4-4-4---|
D|-9--9-7-9-7----0-0-0-0--2-2-2-2---4-4-4---|
A|-9--9-7-9-7----2--------0-------2---------|
E|---------------3--------------------------|

[Final]

E|-14-14-14---15-15-15---14-14-14-14-14-14--|
B|-15-15-15---15-15-15---15-15-15-15-15-15--|
G|------------------------------------------|
D|------------------------------------------|
A|------------------------------------------|
E|------------------------------------------|

E|-15-15-14-14------------------------------|
B|-15-15-15-15------------------------------|
G|------------------------------------------|
D|------------------------------------------|
A|------------------------------------------|
E|------------------------------------------|

Clipes