busca

Borboletas

Victor e Leo

(intro)

G|---------------|
D|---------------|
A|-2------5------|
E|---------------|

G|---------------------------------------------------|
D|---------------------------------------------------|
A|-5~14-14-14-14-14-14-14-14-14-14-14-14-14-14-14-14-|
E|---------------------------------------------------|

G|---------------------------------------------------------------------------------|
D|---------------------------------------------------------------------------------|
A|-12-12-12-12-12-12-12-12-12-12-12-12-12-12-12-12~0-0-0-0-0-0-0-0-0-0-0-0-0-0-0-0-|
E|---------------------------------------------------------------------------------|

G|---------------------------------------------------|
D|- --------------9---9---9---9----7-7-7-7---7-7-7-7-|
A|-2-2-2-2-2-2-2--10--10--10--10---0-0-0-0---0-0-0-0-|
E|---------------------------------------------------|

G|-----------------------------------------|
D|-----------------------------------------|
A|-2---2-2---5---5-5-----------------------| (2x)
E|---------------------5---5-5---7---7-7---|

G|-------------------------------------------------------------|
D|-------------------------------------------------------------|
A|---------------------5---5-5---------------------------------|
E|-0---0-0---3---3-3-------------5---5-5---0---0-0---3---3-3---|

G|---------------------|
D|----------4----------|
A|-0---0-------2-2-2-2-|
E|---------------------|

G|-----------------------------------------|
D|-----------------------------------------|
A|-----------5---5-5-----------------------| (2x)
E|-3---3-3-------------5---5-5---7---7-7---|

G|---------------6-7-----------------------|
D|-----------4-7---------------------------|
A|-----------------------------------------|
E|-3---3-3-------------5---5-5---7---7-7---|

G|-----------------------------------------|
D|-----------------------------------------|
A|-----------5---5-5-----------------------|
E|-3---3-3-------------5---5-5---7---------|

G|--------------------------------------------------------------------|
D|----------------------------------------------------------7777-5555-|
A|-14-14-14-14-14-14-14-14----5---5-5---5---5-5-54--------------------|
E|------------------------------------------------5---5-5-5-----------|

G|---------------------------------------------------------|
D|------------------------------------------------------7--|
A|--------------------------------------------------5~7----|
E|-2---2-2---2---2-2---3---3-3---5---5-5---5----5----------|

G|-----------------------------------------|
D|-----------------------------------------|
A|-2---2-2---5---5-5-----------------------| (2x)
E|---------------------5---5-5---7---7-7---|

G|-------------------------------------------------------------|
D|-------------------------------------------------------------|
A|---------------------5---5-5---------------------------------|
E|-0---0-0---3---3-3-------------5---5-5---0---0-0---3---3-3---|

G|--------------------|
D|---------4----------|
A|-12~0-------2-2-2-2-|
E|--------------------|

G|-----------------------------------------|
D|-----------------------------------------|
A|-----------5---5-5-----------------------|
E|-3---3-3-------------5---5-5---7---7-7-5-|

G|-----------------------------------------|
D|-----------------------------------------|
A|-----------5---5-5-----------------------|
E|-3---3-3-------------5---5-5---7---7-7---|

G|-----------------------------------------|
D|-----------------------------------------|
A|---------------4-5-----------------------|
E|-3---3-3---2-5------2-3-5---5-5---7---7--|

G|---------------------------------------------|
D|---------------------------------------------|
A|-----------5---5-5---------------------77-99-|
E|-3---3-3-------------5---5-5---7---7---------|

G|----------------------------------------2~4---4--4-2-----|
D|-----------------------------------------------------4-2-|
A|-------------5--5--5--4--2--0----------------------------|
E|-3---3-3--3----------------------------------------------|

G|--------------------------------------------|
D|--------------------------------------------|
A|-----------5---5-5----------------------0-2-| (2x)
E|-3---3-3-------------5---5-5---7---7-7------|

G|------------------------------------------------|
D|------------------------------------------7-9-9-|
A|-----------5---5-5----------------------9-------|
E|-3---3-3-------------5---5-5---7---7-7----------|

G|----------------------------------|
D|----------------------------------|
A|-----------5---5-5----------------|
E|-3---3-3-------------5---5-5---7--|

G|----------------------------------------|
D|----------------------------------------|
A|----------------------------------------|
E|-7-7-7-7-7-7-7---7---7-7---7---7-7---7--|

Clipes