Deus e Eu No Sertão

Victor e Leo

A5(9)
12
X02200
Am
123
X02210
C
123
X32010
C9
34
X35533
Dm
123
XX0231
F
234
133211
G
123
320003
Tom: G
[Intro] C9  Am  A5(9)
        C9  Am  A5(9)

#1t1##1t2#E|-0-3---0----------------------------------|
B|-----1-----1---1--------------------------|
G|---------2---0-----0----0-----------------|
D|-----------------2---0--------------------|
A|--------------------------2---------------|
E|------------------------------------------|#/1t2##/1t1#

C               Am  A5(9)
  Nunca vi ninguém     
C              Am  A5(9)
  Viver tão feliz
 F   G         C  G
Como eu no sertão
C               Am  A5(9)  
  Perto de uma mata     
C               Am  A5(9)
  E de um ribeirão
 F     G         C
Deus e eu no sertão

Dm             G       
   Casa simplisinha     
C              Am
  Rede pra dormir
Dm                     G                 
   De noite o show no céu          
F
  Deito pra assistir

( C  Am  A5(9) )
( C  Am  A5(9) )

 F     G         C  G
Deus e eu no sertão

(Passagem)

#2t1##2t2#E|------------------------------------------|
B|-----1-1----------------------------------|
G|---0-2-2----------------------------------|
D|-0----------------------------------------|
A|------------------------------------------|
E|------------------------------------------|#/2t2##/2t1#

C9                Am  A5(9)     
   Das horas não sei       
C9                Am  A5(9)
   Mas vejo o clarão
 F     G              C  G
Lá vou eu cuidar do chão
C9              Am   A5(9)    
   Trabalho cantando        
C9                     Am  A5(9)
   A terra é a inspiração
 F     G         C
Deus e eu no sertão

Dm             G    
   Não há solidão      
C                  Am
  Tem festa lá na vila
Dm                  G  
   Depois da missa vou      
F  G           C
  Ver minha menina
Dm               G     
   De volta pra casa      
C                    Am
  Queima lenha no fogão
Dm                    G               
   E junto ao som da mata          
F
  Vou eu e um violão

( C9  Am  A5(9) )
( C9  Am  A5(9) )

 F      G        C  Am        
Deus e eu no sertão           
 F      G            
Deus e eu no sertão 

( C9  Am  A5(9) )
( C9  Am  A5(9) )
( C9  Am  A5(9) )
( C9  Am  A5(9) )
Composição: Victor ChavesColaboração e revisão: Thalles MarciusAdriano Diniz
Videoaula Deus e Eu No Sertão (aula de violão)