C
123
X32010
D
123
XX0232
Em
12
022000
G
123
320003
Tom: G
[Intro] G Em
        G Em

[Primeira Parte]

 G             Em   G             Em
Fada, fada querida, dona da minha vida
   D                      Em    D
Você se foi, levou meu calor, você se foi, mas não me
    Em   D
levou...
 G             Em   G                 Em
Lua, lua de encanto, ouça pra quem eu canto
  D                Em      D                Em   D
Ela levou minha magia, mas ela é minha alegria

[Pré-Refrão]

 C                    D             G
Vejo uma luz, uma estrela brilhar, sinto um cheiro de
      Em
perfume no ar
 C                     D                 C
Vejo minha fada e sua vara de condão, tocando meu
 D   G   D
coração

[Refrão]

 G                     Em
Madrugada de amor que não vai acabar
 G                         Em
Se estou sonhando, não quero mais acordar
 C                         D         G   D
Minha história linda, meu conto de amor

G                             Em
Algo aqui me diz que essa paixão não é em vão
G                       Em
O meu sentimento é bem mais que uma emoção
C                      D          C    D   G
Eu espero o tempo que for, minha fada do amor

[Solo]

#1t1#(1ª parte)
#1t2#E|------5---5------5/7--7/9---5---|
B|--5/7---7----5/7------9/10--7---|
G|--------------------------------|
D|--------------------------------|
A|--------------------------------|
E|--------------------------------|#/1t2##/1t1#

#2t1#(2ª parte)
#2t2#E|---9--9--9--9/10--10/12--10--9--|
B|--10-10-10-10/12--12/14--12-10--|
G|--------------------------------|
D|--------------------------------|
A|--------------------------------|
E|--------------------------------|#/2t2##/2t1#

#3t1#(3ª parte)
#3t2#E|--17-17-17-17--16-16-16-16------|
B|--19-19-19-19--17-17-17-17------|
G|--------------------------------|
D|--------------------------------|
A|--------------------------------|
E|--------------------------------|#/3t2##/3t1#

#4t1#(4ª parte)
#4t2#E|------9---7---5-------------------|
B|-----------------2-3-5------------|
G|--7/9---7---6---------------------|
D|-------------------------7-6-2-4--|
A|-----------------------5----------|
E|----------------------------------|#/4t2##/4t1#

  C
"Vejo uma luz"
Composição: Victor ChavesColaboração e revisão: Diego CarrionRafael OliveiraGabriel GueirosAllysson Rochae mais 2
Videoaula Fada (aula de violão completo)