Am
123
X02210
Am7
12
X02010
Am7(9)
12
X05500
C5(9)
123
X3X033
C7M
12
X3200X
D4
123
XX0233
D4(9)
134
X57070
D4(9)/A
1234
554030
D9
12
XX0230
Em
13
075000
Em7
1234
022033
G/B
123
X20033
Tom: G
[Intro]  Em7  D9  Am  Em7  D9  

Am  D4


[TAB - Introdução]

Parte 1 de 2
     Em7        D9 Am
E|---3-3-3-3--0--0----0-0-0-0--x-
B|---3-3-3-3--3--1----1-1-1-1--x-
G|---0-0-0-0--2--2----2-2-2-2--x-
D|---2-2-2-2--0--2----2-2-2-2--x-
A|---------------0--0------------
E|-0-----------------------------

E|x----------| 
B|x----------| 
G|x--2/4\2p0-| 
D|x----------| 
A|-----------| 
E|-----------| 



Parte 2 de 2
     Em7        D9 Am             
E|---3-3-3-3--0--0----0-0-0-0--x-
B|---3-3-3-3--3--1----1-1-1-1--x-
G|---0-0-0-0--2--2----2-2-2-2--x-
D|---2-2-2-2--0--2----2-2-2-2--x-
A|---------------0--0------------
E|-0-----------------------------
      D4
E|x--3-------| 
B|x--3-------| 
G|x--2-------| 
D|x--0-------| 
A|-----------| 
E|-----------| 


[Primeira parte]

    Em7
Ô, Sol
              D9  Am
Vê se não esquece    e me ilumina
Em7               D9   Am
    Preciso de você aqui
    Em7
Ô, Sol
            D9  Am
Vê se enriquece    a minha melanina
Em7             D9  Am
    Só você me faz sorrir


[TAB - Primeira parte]

Parte 1 de 2
     Em7        D9 Am
E|---3-3-3-3--0--0----0-0-0-0--x-
B|---3-3-3-3--3--1----1-1-1-1--x-
G|---0-0-0-0--2--2----2-2-2-2--x-
D|---2-2-2-2--0--2----2-2-2-2--x-
A|---------------0--0------------
E|-0-----------------------------

E|x----------| 
B|x----------| 
G|x--2/4\2p0-| 
D|x----------| 
A|-----------| 
E|-----------| 



Parte 2 de 2
     Em         D9 Am             
E|---3-3-3-3--0--0----0-0-0-0--x-
B|---3-3-3-3--3--1----1-1-1-1--x-
G|---0-0-0-0--2--2----2-2-2-2--x-
D|---2-2-2-2--0--2----2-2-2-2--x-
A|---------------0--0------------
E|-0-----------------------------
      D4
E|x--3-------| 
B|x--3-------| 
G|x--2-------| 
D|x--0-------| 
A|-----------| 
E|-----------| 



Parte 2 de 2
     Em         D9 Am             
E|---3-3-3-3--0--0----0-0-0-0--x-
B|---3-3-3-3--3--1----1-1-1-1--x-
G|---0-0-0-0--2--2----2-2-2-2--x-
D|---2-2-2-2--0--2----2-2-2-2--x-
A|---------------0--0------------
E|-0-----------------------------
      D4
E|x--3-------| 
B|x--3-------| 
G|x--2-------| 
D|x--0-------| 
A|-----------| 
E|-----------| 



Parte 2 de 2
     Em         D9 Am             
E|---3-3-3-3--0--0----0-0-0-0--x-
B|---3-3-3-3--3--1----1-1-1-1--x-
G|---0-0-0-0--2--2----2-2-2-2--x-
D|---2-2-2-2--0--2----2-2-2-2--x-
A|---------------0--0------------
E|-0-----------------------------
      D4
E|x--3-------| 
B|x--3-------| 
G|x--2-------| 
D|x--0-------| 
A|-----------| 
E|-----------| 


[Pré-refrão]

    C7M
E quando você vem
      Am7(9)             Em
Tudo fica bem mais tranquilo
         D4(9)
Ô, tranquilo
           C7M
Que assim seja, amém
        Am7(9)          Em
O seu brilho é o meu abrigo
       D4(9)
Meu abrigo

[Refrão]

G/B  C5(9)
E   toda vez que você sai
Am7
    O mundo se distrai
Em7
    Quem fica, ficou
D4(9)/A
        Quem foi, vai, vai
 C5(9)             Am7
Toda vez que você sai

O mundo se distrai Em7 Quem fica, ficou D4(9)/A C5(9) Quem foi, vai, vai, vai Am7 Em7 Quem foi, vai, vai, vai D4(9)/A Quem foi [Primeira parte] Em7 Ô, Sol D9 Am Vê se não esquece e me ilumina Em7 D9 Am Preciso de você aqui Em7 Ô, Sol D9 Am Vê se enriquece a minha melanina Em7 D9 Am Só você me faz sorrir [Pré-refrão] C7M E quando você vem Am7(9) Em Tudo fica bem mais tranquilo D4(9) Ô, tranquilo C7M Que assim seja, amém Am7(9) Em O seu brilho é o meu abrigo D4(9) Meu abrigo [Refrão] G/B C5(9) E toda vez que você sai Am7 O mundo se distrai Em7 Quem fica, ficou D4(9)/A Quem foi, vai, vai C5(9) Am7 Toda vez que você sai O mundo se distrai Em7 Quem fica, ficou D4(9)/A C5(9) Quem foi, vai, vai, vai Am7 Em7 Quem foi, vai, vai, vai D4(9)/A Quem foi, vai, vai [Segunda parte] C5(9) Ô, Sol Vem, aquece a minha alma Am7 E mantém a minha calma Em7 Não esquece que eu existo D4(9)/A E me faz ficar tranquilo C5(9) (Sol) Vem, aquece a minha alma Am7 E mantém a minha calma Em7 Não esquece que eu existo D4(9)/A C5(9) E me faz ficar tranquilo D4(9)/A [Refrão] C5(9) Am7 E toda vez que você sai O mundo se distrai Em7 Quem fica, ficou D4(9)/A Quem foi, vai, vai C5(9) Am7 Toda vez que você sai O mundo se distrai Em7 Quem fica, ficou D4(9)/A C5(9) Quem foi, vai, vai, vai Am7 Em7 Quem foi, vai, vai, vai D4(9)/A C7M Quem foi, vai, vai, vai
Composição: Vitor KleyColaboração e revisão: Caico AntunesLucas KappaunEdson HMauricio
Videoaula O Sol (aula de violão completa)

Utilizamos cookies para personalizar sua experiência. Ao acessar o site, você concorda com a nossa Política de Privacidade.