busca

Código Cama

Wesley Safadão

Tom: D
[Solo]

E|----------------------------------------------------|
B|--5s7-7-7-7---7-5-3-----3-----------5-5s7-----------|
G|--------------------4-----4-3--3-2------------------|
D|----------------------------------------------------|
A|----------------------------------------------------|
E|----------------------------------------------------|

E|----------------------------------------------------|
B|--5s7-7-7-7---7-5-3-----3------5s7------------------|
G|--------------------4-----4-3-----------------------|
D|----------------------------------------------------|
A|----------------------------------------------------|
E|----------------------------------------------------|

D                       F#m
Avenida vazia, e sinal fechado
G                                     Gm
Meu coração destruído aqui dentro do carro
D                               F#m
No porta lata, cerveja tá pela metade
      G                              Gm
E a outra metade, bebi com medo da saudade

Bm                           G
Só sei que a pior parte, começa agora
D                                      A
Na despedida sem beijo, eu destravo a porta
Bm                                  G
E eu vou descendo do carro querendo ficar
         Bm
Não tem como ter final feliz
                G  Gm
Cê só sabe me usar

Gm                     D
Me diz cadê seu coração
                          E
Que só bate pra me machucar
 F#m   G                                      Gm
O seu código cama, é dizer que só quer conversar

               D
Cadê seu coração
                                   E
E esse amor onde é que eu vou guardar
          G                                      Gm
Toma cuidado amor, o que cê nega outro pode me dar

[Solo]

E|----------------------------------------------------|
B|--5s7-7-7-7---7-5-3-----3-----------5-5s7-----------|
G|--------------------4-----4-3--3-2------------------|
D|----------------------------------------------------|
A|----------------------------------------------------|
E|----------------------------------------------------|

E|----------------------------------------------------|
B|--5s7-7-7-7---7-5-3-----3------5s7------------------|
G|--------------------4-----4-3-----------------------|
D|----------------------------------------------------|
A|----------------------------------------------------|
E|----------------------------------------------------|

Clipes