busca

Colinho de Papai

Wesley Safadão

Tom: D
Intro 2x: Bm A

Solo parte I


E|-------7------7---10-10-9-10-9-10-9---------------|
B|---7-7----7-7-------------------------------------|
G|--------------------------------------------------|
D|--------------------------------------------------|
A|--------------------------------------------------|
E|--------------------------------------------------|


Solo Parte II


E|-------5------5---9-9-8-9-8-9-7-------------------|
B|---5-5----5-5-------------------------------------|
G|--------------------------------------------------|
D|--------------------------------------------------|
A|--------------------------------------------------|
E|--------------------------------------------------|


OBS: Tocar alternando o ritmo do solo



Bm
Ja preparei as nota de 100 reservei o camarote
A
Escolhi o carro, que eu vou sair,vou sair de Amarok
Bm
Liguei pra jack, liguei pra dani,convidei para zuar
A
Separa o redbull e o litrão de old parr 

2x



Refrão:
Bm
Senta aqui Senta aqui no colinho de painho
A
Senta aqui senta aqui no colinho de painho
Bm
Senta aqui Senta aqui no colinho de painho
A
Senta aqui senta aqui no colinho de painho

Clipes

Cifra Club Pro

Aproveite o Cifra Club com benefícios exclusivos e sem anúncios
7 dias grátis
Cifra Club Pro
Aproveite o Cifra Club com benefícios exclusivos e sem anúncios
7 dias grátis