busca

Dança da Motinha

Wesley Safadão

Tom: G
Intro: G D
Solo:
E|----------------------10-10--10-8-7------5-5-5---12-12-10-9-7-7--------10-10-10-8-7--5-5---|
B|-3--5--7--8-8--8-8-8---------------------------------------------8-8-----------------------|
G|-------------------------------------------------------------------------------------------|
D|-------------------------------------------------------------------------------------------|
A|-------------------------------------------------------------------------------------------|
E|-------------------------------------------------------------------------------------------|

E|--5-5-5-8-8--8-7-5-----9/10---9/10-----|
B|-------------------8/9------8------8-8-|
G|---------------------------------------|
D|---------------------------------------|
A|---------------------------------------|
E|---------------------------------------|

G         D       G
Gatinha, gatinha, gatinha
           D                     G
Quero ver você fazer a dança da motinha
 G       D       G
Rum,rum,rum,rum,rum

G                 D               G
Mais que tira essa onda de menina patricinha
                      D                  G
Quando ouve o som da moto fica toda asanhadinha
            D                       G
Uma saia bem curtinha e um baita de um corpão
            D                 G
Sentada na garupa,chama logo atenção

 B          Em           C                G
Ela fica tão bonitinha, quando mexe a bundinha
 B           Em
Ai coisinha assanhadinha
 C            D            G
Em minha moto quer dá uma voltinha
 G     D      G
Rum,rum,rum,rum,rum
 G     D      G
Rum,rum,rum,rum,rum

Clipes