busca

De Tanto Te Querer

Wesley Safadão

Tom: D
Intro.(2x):

D5                   D7+             Bm7            D5   
e|----5----5---5-5---5----5---5-5----5----5---5-5---3----3---3-3---|
B|----3-----3--3-3---2-----2--2-2----3-----3--3-3---3-----3--3-3---|
G|----2--------2-2---2--------2-2----2--------2-2---2--------2-2---|
D|----0--0-----0-0---2--2-----2-2----4--4-----4-4---0--0-----0-0---|
A|-----------------------------------2--------2-2------------------|
E|-----------------------------------------------------------------|
(Obs.: Sempre deixar o dedo mindinho preso na 5° casa da primeira corda durante a intro.)

D                    A/C# 
Larga tudo e vem correndo, 
Bm                  E7 
vem matar minha vontade, 
G                           Bm A 
já faz tempo que eu tô sofrendo, 
E7                     A4       A
mereço um pouco de felicidade.. 
D                    A/C# 
Larga tudo e vem correndo, 
Bm                         E7 
pra eu mergulhar no teu sorriso, 
G                   Bm7 A  E7                 A4     A 
me arranca desse inferno me leva pro seu paraíso.. 

G                         Bm7                     E7         G A 
Eu não desisto do que eu quero mais não me desespero, te espero... 
D                        E7         G                     A 
Na tarde quente ou madrugada fria, na tristeza ou na alegria... 

      D                  Em                       G                 
      ficar sozinho não rola mais amor não se implora, 
      A                D 
      nem se joga fora... 
                         Em                      G 
R     O amor a gente conquista e não há quem desista, 
e     A                    D 
f    se e o coração chora. 
r     
ã     D                  A/C#       Em                           
o     Chora com vontade de te ver, 
                    G    A       D  
      chora com saudade de você,  
                     A/C#           Em                       
      chora as vezes eu nem sei porque, 
                   G     A       D     A/C#       E7     
      deve ser te tanto te querer.. ieeeeeeee ieeeee  
          G      A       D
      de tanto amar você.

SOLO:

    D          Em            G       A     
e|------------2-----------------------32--0----------------------
B|--------3-5---5--3-5-3-5-3-5-3-3------------5b7b5--3-3----------
G|--2-2-2---------------------------------------------------------                                      
D|----------------------------------------------------------------
A|----------------------------------------------------------------
E|----------------------------------------------------------------

Repete refrão (2x)
Volta em:

D             A/C#       Em                           
Chora com vontade de te ver, 
              G   A9      D 
chora com saudade de você,   
               A/C#          Em                       
chora as vezes eu nem sei porque, 
             G     A9      D     A/C#       E7    
deve ser te tanto te querer...          ieeeeeeee ieeeee 
    G      A9      D    A/C#       E7     
de tanto amar você...          ieeeeeeee ieeeee

Clipes

Cifra Club Pro

Aproveite o Cifra Club com benefícios exclusivos e sem anúncios
7 dias grátis
Cifra Club Pro
Aproveite o Cifra Club com benefícios exclusivos e sem anúncios
7 dias grátis