A
123
X02220
Bm
234
X24432
D
123
XX0232
E9
123
024100
Tom: G
 A                          E9
Hoje eu acordei, me veio a falta de você
    Bm              D
Saudade de você, saudade de você
     A                         E9
Lembrei que me acordava de manhã só pra dizer:
      Bm
"Bom dia, meu bebê!
   D
Te amo, meu bebê!"

Solo:

Primeira Parte

#1t1##1t2#E|-----12-----------------------------------------
B|--14----12-14-15-14---------12-15-14-12----12--
G|----------------------14-11--------------14----9
D|------------------------------------------------
A|------------------------------------------------
E|------------------------------------------------#/1t2##/1t1#

Segunda Parte

#2t1##2t2#E|-----12------------------17-16-14------------
B|--14----12-14-15-14--------------14-15-17-14
G|----------------------14---------------------
D|---------------------------------------------
A|---------------------------------------------
E|---------------------------------------------#/2t2##/2t1#

A
Foi bonito, foi
E9            Bm
Foi intenso, foi verdadeiro
D
Mas sincero
A              E9
Sei que fui capaz
           Bm
Fiz até demais
     D
Te quis do teu jeito
A       E9
Te amei, te mostrei
Bm                   D
Que o meu amor foi o mais profundo
A        E9
Me doei, me entreguei
     Bm      D
Fui fiel! Chorei, chorei...

 A                          E9
Hoje eu acordei, me veio a falta de você
    Bm              D
Saudade de você, saudade de você
     A                         E9
Lembrei que me acordava de manhã só pra dizer:
      Bm
"Bom dia, meu bebê!
   D
Te amo, meu bebê!"
Composição: Fabio O’Brian / Felipe Escandurras / Magno Santanna / PabloColaboração e revisão: Carlos Germano