busca

Igual Ela Só Uma

Wesley Safadão

Tom: D
[Intro] G  Bm7  A
        G  Bm7  A

E|-10-9h10p9-------------10-9h10p9----------|
B|-----------12-10-10/12-----------12-10----|
G|--------------------------------------9/11|
D|------------------------------------------|
A|------------------------------------------|
E|------------------------------------------|

E|-10-9-10-12-9h10p9-7h9p7-5h7p5------------|
B|------------------------------------------|
G|------------------------------------------|
D|------------------------------------------|
A|------------------------------------------|
E|------------------------------------------|

E|-10-9h10p9-------------10-9h10p9----------|
B|-----------12-10-10/12-----------12-10----|
G|--------------------------------------9/11|
D|------------------------------------------|
A|------------------------------------------|
E|------------------------------------------|

E|-10-9-10-12-9h10p9-7h9p7-5h7p5------------|
B|------------------------------------------|
G|------------------------------------------|
D|------------------------------------------|
A|------------------------------------------|
E|------------------------------------------|

E|-17-17-17-17-17---------------------------|
B|------------------------------------------|
G|------------------------------------------|
D|------------------------------------------|
A|------------------------------------------|
E|------------------------------------------|

[Primeira Parte]

 Bm7        D                  A
Tá mandando esse olhinho por quê?
               E7
Não vê que eu tenho compromisso
 Bm7        D             A
Meu status tá valendo o quê?
             E7
Cê quer pôr meu namoro em risco

[Pré-Refrão]

    G                  Bm7
Já teve a sua oportunidade e não aproveitou
A
  Vacilou, não vingou nosso amor
  G                      Bm7                    A
Agora tá pensando que é só dizer vem cá que eu vou

[Refrão]

                          Bm7
Cê quer ver eu trair meu bem
             D
Nananim nem vem
             A
Igual ela só uma
                E7
Igual você tem cem

                          Bm7
Cê quer ver eu trair meu bem
             D
Nananim nem vem
             A
Igual ela só uma
                E7
Igual você tem cem

                          Bm7
Cê quer ver eu trair meu bem
             D
Nananim nem vem
             A
Igual ela só uma
                E7
Igual você tem cem

                          Bm7
Cê quer ver eu trair meu bem
             D
Nananim nem vem
             A
Igual ela só uma
                E7
Igual você tem cem

[Solo] G  Bm7  A
       G  Bm7  A

E|-10-9h10p9-------------10-9h10p9----------|
B|-----------12-10-10/12-----------12-10----|
G|--------------------------------------9/11|
D|------------------------------------------|
A|------------------------------------------|
E|------------------------------------------|

E|-10-9-10-12-9h10p9-7h9p7-5h7p5------------|
B|------------------------------------------|
G|------------------------------------------|
D|------------------------------------------|
A|------------------------------------------|
E|------------------------------------------|

E|-10-9h10p9-------------10-9h10p9----------|
B|-----------12-10-10/12-----------12-10----|
G|--------------------------------------9/11|
D|------------------------------------------|
A|------------------------------------------|
E|------------------------------------------|

E|-10-9-10-12-9h10p9-7h9p7-5h7p5------------|
B|------------------------------------------|
G|------------------------------------------|
D|------------------------------------------|
A|------------------------------------------|
E|------------------------------------------|

E|-17-17-17-17-17---------------------------|
B|------------------------------------------|
G|------------------------------------------|
D|------------------------------------------|
A|------------------------------------------|
E|------------------------------------------|

[Primeira Parte]

 Bm7        D                  A
Tá mandando esse olhinho por quê?
               E7
Não vê que eu tenho compromisso
 Bm7        D             A
Meu status tá valendo o quê?
             E7
Cê quer pôr meu namoro em risco

[Pré-Refrão]

    G                  Bm7
Já teve a sua oportunidade e não aproveitou
A
  Vacilou, não vingou nosso amor
  G                      Bm7                    A
Agora tá pensando que é só dizer vem cá que eu vou

[Refrão]

                          Bm7
Cê quer ver eu trair meu bem
             D
Nananim nem vem
             A
Igual ela só uma
                E7
Igual você tem cem

                          Bm7
Cê quer ver eu trair meu bem
             D
Nananim nem vem
             A
Igual ela só uma
                E7
Igual você tem cem

                          Bm7
Cê quer ver eu trair meu bem
             D
Nananim nem vem
             A
Igual ela só uma
                E7
Igual você tem cem

                          Bm7
Cê quer ver eu trair meu bem
             D
Nananim nem vem
             A
Igual ela só uma
                E7
Igual você tem cem

[Final] G  Bm7  A
        G  Bm7  A

E|-10-9h10p9-------------10-9h10p9----------|
B|-----------12-10-10/12-----------12-10----|
G|--------------------------------------9/11|
D|------------------------------------------|
A|------------------------------------------|
E|------------------------------------------|

E|-10-9-10-12-9h10p9-7h9p7-5h7p5------------|
B|------------------------------------------|
G|------------------------------------------|
D|------------------------------------------|
A|------------------------------------------|
E|------------------------------------------|

E|-10-9h10p9-------------10-9h10p9----------|
B|-----------12-10-10/12-----------12-10----|
G|--------------------------------------9/11|
D|------------------------------------------|
A|------------------------------------------|
E|------------------------------------------|

E|-10-9-10-12-9h10p9-7h9p7-5h7p5------------|
B|------------------------------------------|
G|------------------------------------------|
D|------------------------------------------|
A|------------------------------------------|
E|------------------------------------------|

E|-17-17-17-17-17---------------------------|
B|------------------------------------------|
G|------------------------------------------|
D|------------------------------------------|
A|------------------------------------------|
E|------------------------------------------|

Clipes