Igual Ela Só Uma

Wesley Safadão

A
123
X02220
Bm7
34
X24232
D
123
XX0232
E7
1234
022130
G
123
320003
Tom: G
[Intro] G  Bm7  A
        G  Bm7  A

#1t1##1t2#E|-10-9h10p9-------------10-9h10p9----------|
B|-----------12-10-10/12-----------12-10----|
G|--------------------------------------9/11|
D|------------------------------------------|
A|------------------------------------------|
E|------------------------------------------|#/1t2##/1t1#

#2t1##2t2#E|-10-9-10-12-9h10p9-7h9p7-5h7p5------------|
B|------------------------------------------|
G|------------------------------------------|
D|------------------------------------------|
A|------------------------------------------|
E|------------------------------------------|#/2t2##/2t1#

#3t1##3t2#E|-10-9h10p9-------------10-9h10p9----------|
B|-----------12-10-10/12-----------12-10----|
G|--------------------------------------9/11|
D|------------------------------------------|
A|------------------------------------------|
E|------------------------------------------|#/3t2##/3t1#

#4t1##4t2#E|-10-9-10-12-9h10p9-7h9p7-5h7p5------------|
B|------------------------------------------|
G|------------------------------------------|
D|------------------------------------------|
A|------------------------------------------|
E|------------------------------------------|#/4t2##/4t1#

#5t1##5t2#E|-17-17-17-17-17---------------------------|
B|------------------------------------------|
G|------------------------------------------|
D|------------------------------------------|
A|------------------------------------------|
E|------------------------------------------|#/5t2##/5t1#

[Primeira Parte]

 Bm7        D                  A
Tá mandando esse olhinho por quê?
               E7
Não vê que eu tenho compromisso
 Bm7        D             A
Meu status tá valendo o quê?
             E7
Cê quer pôr meu namoro em risco

[Pré-Refrão]

    G                  Bm7
Já teve a sua oportunidade e não aproveitou
A
  Vacilou, não vingou nosso amor
  G                      Bm7                    A
Agora tá pensando que é só dizer vem cá que eu vou

[Refrão]

                          Bm7
Cê quer ver eu trair meu bem
             D
Nananim nem vem
             A
Igual ela só uma
                E7
Igual você tem cem

                          Bm7
Cê quer ver eu trair meu bem
             D
Nananim nem vem
             A
Igual ela só uma
                E7
Igual você tem cem

                          Bm7
Cê quer ver eu trair meu bem
             D
Nananim nem vem
             A
Igual ela só uma
                E7
Igual você tem cem

                          Bm7
Cê quer ver eu trair meu bem
             D
Nananim nem vem
             A
Igual ela só uma
                E7
Igual você tem cem

[Solo] G  Bm7  A
       G  Bm7  A

#6t1##6t2#E|-10-9h10p9-------------10-9h10p9----------|
B|-----------12-10-10/12-----------12-10----|
G|--------------------------------------9/11|
D|------------------------------------------|
A|------------------------------------------|
E|------------------------------------------|#/6t2##/6t1#

#7t1##7t2#E|-10-9-10-12-9h10p9-7h9p7-5h7p5------------|
B|------------------------------------------|
G|------------------------------------------|
D|------------------------------------------|
A|------------------------------------------|
E|------------------------------------------|#/7t2##/7t1#

#8t1##8t2#E|-10-9h10p9-------------10-9h10p9----------|
B|-----------12-10-10/12-----------12-10----|
G|--------------------------------------9/11|
D|------------------------------------------|
A|------------------------------------------|
E|------------------------------------------|#/8t2##/8t1#

#9t1##9t2#E|-10-9-10-12-9h10p9-7h9p7-5h7p5------------|
B|------------------------------------------|
G|------------------------------------------|
D|------------------------------------------|
A|------------------------------------------|
E|------------------------------------------|#/9t2##/9t1#

#10t1##10t2#E|-17-17-17-17-17---------------------------|
B|------------------------------------------|
G|------------------------------------------|
D|------------------------------------------|
A|------------------------------------------|
E|------------------------------------------|#/10t2##/10t1#

[Primeira Parte]

 Bm7        D                  A
Tá mandando esse olhinho por quê?
               E7
Não vê que eu tenho compromisso
 Bm7        D             A
Meu status tá valendo o quê?
             E7
Cê quer pôr meu namoro em risco

[Pré-Refrão]

    G                  Bm7
Já teve a sua oportunidade e não aproveitou
A
  Vacilou, não vingou nosso amor
  G                      Bm7                    A
Agora tá pensando que é só dizer vem cá que eu vou

[Refrão]

                          Bm7
Cê quer ver eu trair meu bem
             D
Nananim nem vem
             A
Igual ela só uma
                E7
Igual você tem cem

                          Bm7
Cê quer ver eu trair meu bem
             D
Nananim nem vem
             A
Igual ela só uma
                E7
Igual você tem cem

                          Bm7
Cê quer ver eu trair meu bem
             D
Nananim nem vem
             A
Igual ela só uma
                E7
Igual você tem cem

                          Bm7
Cê quer ver eu trair meu bem
             D
Nananim nem vem
             A
Igual ela só uma
                E7
Igual você tem cem

[Final] G  Bm7  A
        G  Bm7  A

#11t1##11t2#E|-10-9h10p9-------------10-9h10p9----------|
B|-----------12-10-10/12-----------12-10----|
G|--------------------------------------9/11|
D|------------------------------------------|
A|------------------------------------------|
E|------------------------------------------|#/11t2##/11t1#

#12t1##12t2#E|-10-9-10-12-9h10p9-7h9p7-5h7p5------------|
B|------------------------------------------|
G|------------------------------------------|
D|------------------------------------------|
A|------------------------------------------|
E|------------------------------------------|#/12t2##/12t1#

#13t1##13t2#E|-10-9h10p9-------------10-9h10p9----------|
B|-----------12-10-10/12-----------12-10----|
G|--------------------------------------9/11|
D|------------------------------------------|
A|------------------------------------------|
E|------------------------------------------|#/13t2##/13t1#

#14t1##14t2#E|-10-9-10-12-9h10p9-7h9p7-5h7p5------------|
B|------------------------------------------|
G|------------------------------------------|
D|------------------------------------------|
A|------------------------------------------|
E|------------------------------------------|#/14t2##/14t1#

#15t1##15t2#E|-17-17-17-17-17---------------------------|
B|------------------------------------------|
G|------------------------------------------|
D|------------------------------------------|
A|------------------------------------------|
E|------------------------------------------|#/15t2##/15t1#
Composição: Renno / Hiago Nobre / Junior Gomes / Thales LessaColaboração e revisão: Thiago Almeida