busca

Menino Traquino

Wesley Safadão

Tom: G#
Primeira Frase:
E|----------------------------|
B|----------------------------|
G|----------------------------|
D|-3-3-1-1--------------------|
A|-------3-3------------------|
E|----------1-----------------|

Solo: Fm  Eb
E|-------------------------------------------------|
B|-------------------------------------------------|
G|-13-12-13-10-13-12-13-10-12-10-12-8-12-10-12-8---|
D|-------------------------------------------------|
A|-------------------------------------------------|
E|-------------------------------------------------|

Segunda Frase
E|----------------------------------|
B|----------------------------------|
G|----------------------------------|
D|----------1-2-3-------------------|
A|-----1-3-4------------------------|
E|-1-3-4----------------------------|

Fm                         Eb                          Fm
Meu coraçõa era menino traquino saia rindo de toda relação
Fm                           Eb                                Fm
Mas o destino aprontou uma comigo trouxe você pra dentro do coração. (2x)
Fm                              Eb                  Fm
Assim que eu te vi logo me apaixonei logo me apaixonei. (2x)
Fm                Eb                               Fm
Hoje eu não tenho duvidas que tu me amas que eu te amo. (2x)
Fm                               Eb                Fm
Assim que eu te vi logo me apaixonei logo me apaixonei. (2x)

Clipes