busca

Mulherada na Lancha

Wesley Safadão

Tom: A
Intro: F#m  E

Solo:

E|------------------------------------------------------------------------------------|
B|------------------------------------------------------------------------------------|
G|------6-6-6-6/7-6---------6-6-6-6/7-6----------4-4-4-4/6-4-------4-4-4-4/6-4--------|
D|4-4-4---------------4-4-4----------------2-2-2-------------2-2-2--------------------|
A|------------------------------------------------------------------------------------|
E|------------------------------------------------------------------------------------|

E|-------------------------------------------------------------------------------------|
B|-------------------------------------------------------------------------------------|
G|------6-6-6-6/7-6---------6-6-6-6/7-6----------4-4-4-4/6-4-------4-4-4-4/6-4---------|
D|4-4-4---------------4-4-4----------------2-2-2-------------2-2-2-------------4-------|
A|-------------------------------------------------------------------------------------|
E|-------------------------------------------------------------------------------------|

F#m
A mulherada ta na lancha,
              E
Com o copo na mão

Dançando aquele arrocha
                F#m
E bebendo sem noção.
                                   E
Eu ja capotei e elas ainda tão de pé,
                                       F#m
Ta muito complicado segurar essas mulheres.

Pega o black,

Traz o jhonnie,

Abre o blue label,
           E
E tome, tome
                                    F#m
A mulherada ta bebendo igual aos homens.

E toma, toma

Toma, toma, toma
                        E
E vai tomando na boquinha.

Clipes