busca

Olha a Explosão

Wesley Safadão

Tom: C
Intro: Am G Am G Am G Am Em G G#m Am

Solo:

Parte 1 
E|----------8--8-8--------------------------------|
B|10--10-10-------8--8-8-10-----------------------|
G|------------------------------------------------|  (2x)
D|------------------------------------------------|
A|------------------------------------------------|
E|------------------------------------------------|

Parte 2 
E|----------8--8-8--------------------------------|
B|10--10-10-------8--8-8-10-----------------------|
G|------------------------------------------------|
D|------------------------------------------------|
A|------------------------------------------------|
E|------------------------------------------------|

E|------12--12-12-10------------------------------|
B|10-10---------------7-8-9-10--------------------|
G|------------------------------------------------|
D|------------------------------------------------|
A|------------------------------------------------|
E|------------------------------------------------|

Primeira Parte:

Am
Essa novinha é terrorista
É especialista
G
Olha o que ela faz no baile funk com as amigas
   Am
Essa novinha é terrorista
É especialista
G
Olha o que ela faz no baile funk com as amigas
G
Olha o que ela faz no baile funk com as amigas

Pré-Refrão:

 Am                              G  Am
É muito explosiva não mexe com ela não
Am                                 G  Am
É muito explosiva não brinca com ela não
 
Refrão:

Am Em F Em Am
Olha a explosão
                    G            Am
Quando ela bate com a bunda no chão
            G                    Am
Quando ela mexe com a bunda no chão
            G                    Am
Quando ela joga com a bunda no chão
            G                  Am
Quando ela sarra o bumbum no chão chão chão...
            G                    Am
Quando ela bate com a bunda no chão
            G                    Am
Quando ela mexe com a bunda no chão
            G                    Am
Quando ela joga com a bunda no chão 
            G                  Am
Quando ela sarra o bumbum no chão chão chão...
 
Solo Intro: Am G Am G Am G Am Em G G# Am

Primeira Parte:

Am
Essa novinha é terrorista
É especialista
G
Olha o que ela faz no baile funk com as amigas
   Am
Essa novinha é terrorista
É especialista
G
Olha o que ela faz no baile funk com as amigas
G
Olha o que ela faz no baile funk com as amigas

Pré-Refrão:

 Am                              G  Am
É muito explosiva não mexe com ela não
Am                                 G  Am
É muito explosiva não brinca com ela não
 
Refrão:

Am Em F Em Am
Olha a explosão
                    G            Am
Quando ela bate com a bunda no chão
            G                    Am
Quando ela mexe com a bunda no chão
            G                    Am
Quando ela joga com a bunda no chão
            G                  Am
Quando ela sarra o bumbum no chão chão chão...
            G                    Am
Quando ela bate com a bunda no chão
            G                    Am
Quando ela mexe com a bunda no chão
            G                    Am
Quando ela joga com a bunda no chão 
            G                  Am
Quando ela sarra o bumbum no chão chão chão...

Clipes