busca

Poderosa

Wesley Safadão

Tom: F
Solo intro:

E|-----------------------------------|
B|-----------------------------------|
G|-------------------------7---------|
D|--5-555-7-8-7-5--555-7-8---8-7-5---| 2x
A|-----------------------------------|
E|-----------------------------------|

Solo intro(baixo na guitarra/violão):

E|-----------------------------------|
B|-----------------------------------|
G|-----------------------------------|
D|-----------------------------------|
A|-------------------------5---------|
E|--3-333-5-6-5-3--333-5-6---6-5-3---|

E|-----------15-12------15-12--------|
B|-----13-----------13---------------|
G|-----------------------------------|
D|-----------------------------------|
A|-----------------------------------|
E|-----------------------------------|

Solo:

E|----------------------------------------------------|
B|----------------------------------------------------|
G|-12--12-12-12---------10-10-10--12-12-12------------|
D|-------------12-12-12-------------------------------|
A|----------------------------------------------------|
E|----------------------------------------------------|

E|----------------------------------------------------|
B|----------------------------------------------------|
G|-12-12-12----------10-10-12-------------------------|
D|----------12-12-12----------------------------------|
A|----------------------------------------------------|
E|----------------------------------------------------|

E|-----------15-12------15-12--------|
B|-----13-----------13---------------|
G|-----------------------------------|
D|-----------------------------------|
A|-----------------------------------|
E|-----------------------------------|

            Gm
Quando ela chega, para o baile

De vestido da Ed Hardy
F                   D
Ela é tipo panicat, destaque na capa da sexy
Gm
Poderosa, maravilhosa
F
Onde passa incomoda
D
Onde passa incomoda

Gm
Enjoada, da mente blindada

Só bebi tequila e chandon na táça
F                           D
Essa mina é chapa quente, é bandida experiente
         Gm
Entra em cena, roba a cena
      F                    D
No camaro ela acena, no camaro ela acena

(Solo)

       Gm
Tem de galo, tem de cem, pode chama que eles vem
       F                          D
Tá causando zum, zum, zum; tá no giro de R1
     Gm                   F                          D
Ela porta, ela forga, só gosta de andar na moda, só gosta de andar na moda
    Gm
No pulso alt blade, ouro 18 quilates
       F                      D
Tem Armani, black bulgo o perfume é o two one two
       Gm                         F                         D
Tem batom, tem maquiagem só pra retocar a imagem, só pra retocar no baile 

(Solo)

            Gm
Quando ela chega, para o baile

De vestido da Ed Hardy
F                       D
Ela é tipo panicat, destaque na capa da sexy
     Gm
De tamanco ela sobe, ela desce, de tamanco ela sobe, ela desce
      F
De tamanco ela sobe, ela desce, de tamanco ela sobe, ela desce,
 
     Gm
Poderosa, maravilhosa
      F
Onde passa incomoda
      D
Onde passa incomoda

Gm
Enjoada, da mente blindada

Só bebi tequila e chandon na táça
 F                          D
Essa mina é chapa quente, é bandida experiente
         Gm
Entra em cena, roba a cena
      F                    D
No camaro ela acena, no camaro ela acena

(Solo)

Uh uuuhu ien ien ien ien

       Gm
Tem de galo, tem de cem, pode chama que eles vem
       F                          D
Tá causando zum, zum, zum; tá no giro de R1
     Gm                   F                          D
Ela porta, ela forga, só gosta de andar na moda, só gosta de andar na moda
    Gm
No pulso alt blade, ouro 18 quilates
       F                      D
Tem Armani, black bulgo o perfume é o two one two
       Gm                         F                         D
Tem batom, tem maquiagem só pra retocar a imagem, só pra retocar no baile 

(Solo)

Clipes