busca

Posto 24h (part. Lucas Lucco)

Wesley Safadão

Tom: Ebm (forma dos acordes no tom de C#m) Capotraste na 2ª casa
[Intro] A  B9  C#m7

E|------------------------------------------|
B|---------4/5-4-2-0-2-0-2-0-2-0-2----------|
G|-1/4-4-4----------------------------------|
D|------------------------------------------|
A|------------------------------------------|
E|------------------------------------------|

E|------------------------------------------|
B|------------------------------------------|
G|------------------------------------------|
D|-4/6-6-6-6-4-2----------------------------|
A|---------------4--------------------------|
E|------------------------------------------|

[Primeira Parte]
     
                  A
O tira gosto esfriou 
                 B9
A cerveja esquentou 
               C#m7
O cigarro queimou a ponta do meu dedo

               A
Essa festa acabou
               B9
Meus amigos vazou
             C#m7
E a dona do bar tá fechando mais cedo

[Pré-Refrão]

               A                      B9
E aonde é que meu coração fica nessa hora
                  C#m7
Qualquer homem durão nesse momento chora
                  A       
Sem ela na minha casa eu não me sinto bem
B9                     C#m7
  Eu sem amor e sem bebida sou um zé ninguém

[Refrão]

              A         B9            C#m7
E o posto 24 horas é o point dos largados
                           A
Olha eu virado bebendo por ela 
                B9                C#m7
E o povo abastecendo indo pro trabalho

              A         B9            C#m7
E o posto 24 horas é o point dos largados
                           A
Olha eu virado bebendo por ela 
                B9                C#m7
E o povo abastecendo indo pro trabalho

( A  B9  C#m7 )
( A  B9  C#m7 )

[Pré-Refrão]

               A                      B9
E aonde é que meu coração fica nessa hora
                  C#m7
Qualquer homem durão nesse momento chora
                  A       
Sem ela na minha casa eu não me sinto bem
B9                     C#m7
  Eu sem amor e sem bebida sou um zé ninguém

[Refrão]

              A         B9            C#m7
E o posto 24 horas é o point dos largados
                           A
Olha eu virado bebendo por ela 
                B9                C#m7
E o povo abastecendo indo pro trabalho

              A         B9            C#m7
E o posto 24 horas é o point dos largados
                           A
Olha eu virado bebendo por ela 
                B9                C#m7
E o povo abastecendo indo pro trabalho

              A         B9            C#m7
E o posto 24 horas é o point dos largados
                           A
Olha eu virado bebendo por ela 
                B9                C#m7
E o povo abastecendo indo pro trabalho

[Final] A  B9  C#m

E|------------------------------------------|
B|---------4/5-4-2-0-2-0-2-0-2-0-4/5-4-2----|
G|-1/4-4-4----------------------------------|
D|------------------------------------------|
A|------------------------------------------|
E|------------------------------------------|

Clipes