busca

Quem Tem o Dom (Part. Jerry Smith)

Wesley Safadão

Tom: Bm
[Intro] Bm

E|----------------------------------------------------|
B|----------------------------------------------------|
G|----------------------------------------------------|
D|----------------------------------------------------| (2x)
A|-2-5/9-7------2-----2-5/9-7------2------------------|
E|----------2-5---------------2-5---------------------|

[Primeira Parte]

 Bm                             F#m A
Tem, tem gente que tenta mas não
       
Tem as manhas pra fazer tão bem

E|----------------------------------------------------|
B|-5-7-5-3---3---5-7-5-3---3-7-----5------------------|
G|---------4-------------4----------------------------|
D|----------------------------------------------------|
A|----------------------------------------------------|
E|----------------------------------------------------|

   Em
O dom, dom, dom, dorom, dorom
                    Bm
Dom, dom, dorom, dorom
     F#7
Dororom

Bm                           F#m    A  Bm
Ei, enquanto chamam atenção com o Chandon
             F#m A
Resolvo com realzin de

E|----------------------------------------------------|
B|-5-7-5-3---3---5-7-5-3---3-7-----5------------------|
G|---------4-------------4----------------------------|
D|----------------------------------------------------|
A|----------------------------------------------------|
E|----------------------------------------------------|

 Em
Dom, dom, dom, dorom, dorom
                    Bm
Dom, dom, dorom, dorom
     F#7
Dororom

[Pré-Refrão]

 Em                  
Tentam me hackear mas não tem jeito, é tudo fake
    F#
Com uma dose do meu beijo, mata sua sede
 Em                         F#7
Não tem no mercado outro igual

Eu sou original (eu sou original)

[Refrão]

 Bm  
Dom, dom, dom, dorom, dorom
                    G        
Dom, dom, dorom, dorom
                          A
Chama no grave que ela aguenta a pressão
 Bm  
Dom, dom, dom, dorom, dorom
                    G        
Dom, dom, dorom, dorom
                        A
Quem tem o dom, faz bumbum descer no chão

 Bm  
Dom, dom, dom, dorom, dorom
                    G        
Dom, dom, dorom, dorom
                          A
Chama no grave que ela aguenta a pressão
 Bm  
Dom, dom, dom, dorom, dorom
                    G        
Dom, dom, dorom, dorom
                        A
Quem tem o dom, faz bumbum descer no chão

[Ponte]

 Bm
Dom, dom, dom, dom, dorom, dorom
 Bm
Dom, dom, dom, dom, dorom, dorom
 Bm
Dom, dom, dom, dom, dorom, dorom
 Bm
Dom, dom, dom, dom, dorom, dorom

[Primeira Parte]

 Bm                             F#m A
Tem, tem gente que tenta mas não
       
Tem as manhas pra fazer tão bem

E|----------------------------------------------------|
B|-5-7-5-3---3---5-7-5-3---3-7-----5------------------|
G|---------4-------------4----------------------------|
D|----------------------------------------------------|
A|----------------------------------------------------|
E|----------------------------------------------------|

   Em
O dom, dom, dom, dorom, dorom
                    Bm
Dom, dom, dorom, dorom
     F#7
Dororom

Bm                           F#m    A  Bm
Ei, enquanto chamam atenção com o Chandon
             F#m A
Resolvo com realzin de

E|----------------------------------------------------|
B|-5-7-5-3---3---5-7-5-3---3-7-----5------------------|
G|---------4-------------4----------------------------|
D|----------------------------------------------------|
A|----------------------------------------------------|
E|----------------------------------------------------|

 Em
Dom, dom, dom, dorom, dorom
                    Bm
Dom, dom, dorom, dorom
     F#7
Dororom

[Pré-Refrão]

 Em                  
Tentam me hackear mas não tem jeito, é tudo fake
    F#
Com uma dose do meu beijo, mata sua sede
 Em                         F#7
Não tem no mercado outro igual

Eu sou original (eu sou original)

[Refrão]

 Bm  
Dom, dom, dom, dorom, dorom
                    G        
Dom, dom, dorom, dorom
                          A
Chama no grave que ela aguenta a pressão
 Bm  
Dom, dom, dom, dorom, dorom
                    G        
Dom, dom, dorom, dorom
                        A
Quem tem o dom, faz bumbum descer no chão

 Bm  
Dom, dom, dom, dorom, dorom
                    G        
Dom, dom, dorom, dorom
                          A
Chama no grave que ela aguenta a pressão
 Bm  
Dom, dom, dom, dorom, dorom
                    G        
Dom, dom, dorom, dorom
                        A
Quem tem o dom, faz bumbum descer no chão

Clipes

Cifra Club Pro

Aproveite o Cifra Club com benefícios exclusivos e sem anúncios
7 dias grátis
Cifra Club Pro
Aproveite o Cifra Club com benefícios exclusivos e sem anúncios
7 dias grátis