Recém Abandonado

Wesley Safadão

A
123
X02220
B
234
X24442
C#m
234
X46654
Tom: G
[Intro] A  B  C#m
 
#1t1#            A       B           C#m
#1t2#E|------5p4-----------7-7-7-7-7/9---------------------|
B|----5-----7-5-5-5/7---------------9-7-5h7p5~--------|
G|-/6-------------------------------------------------|
D|----------------------------------------------------|
A|----------------------------------------------------|
E|----------------------------------------------------|#/1t2##/1t1#

[Primeira Parte]
 
 A                      B
Desce uma bebida quente 
                 C#m
Para derreter o gelo que ela me deu
 A                      B
Mas desce de copo cheio
                 C#m
Porque vazio já basta eu

[Segunda Parte]

 A                   B
Desce um litro da mineira
                   C#m
Para ver se eu esqueço daquela covarde
 A                   B            C#m
Porque um copo vazio   é oficina da saudade

[Pré-Refrão]

               A                   B
E se tiver desconto para coração trouxa
           C#m
Pode reservar a prateleira toda
                  A              B
Para um recém largado pós abandonado
                C#m
Toda cachaça é pouca

               A                   B
E se tiver desconto para coração trouxa
           C#m
Pode reservar a prateleira toda
                  A              B
Para um recém largado pós abandonado
                C#m
Toda cachaça é pouca

[Refrão]

     A
Iêiêiê
                   B                 C#m
É hoje que eu me acabo aqui nessa bagaça
     A
Iêiêiê
              B                    C#m
Se eu cair relaxa que do chão não passa

[Solo] A  B  C#m
       A  B  C#m

#2t1#            A       B           C#m
#2t2#E|------5p4-----------7-7-7-7-7/9---------------------|
B|----5-----7-5-5-5/7---------------9-7-5h7p5~--------|
G|-/6-------------------------------------------------|
D|----------------------------------------------------|
A|----------------------------------------------------|
E|----------------------------------------------------|#/2t2##/2t1#

#3t1#            A       B           C#m
#3t2#E|------5p4-----------7-7-7-7-7/9---14--12--9~--------|
B|----5-----7-5-5-5/7---------------------------------|
G|-/6-------------------------------------------------|
D|----------------------------------------------------|
A|----------------------------------------------------|
E|----------------------------------------------------|#/3t2##/3t1#

[Segunda Parte]

 A                   B
Desce um litro da mineira
                   C#m
Para ver se eu esqueço daquela covarde
 A                   B            C#m
Porque um copo vazio   é oficina da saudade

[Pré-Refrão]

               A                   B
E se tiver desconto para coração trouxa
           C#m
Pode reservar a prateleira toda
                  A              B
Para um recém largado pós abandonado
                C#m
Toda cachaça é pouca

               A                   B
E se tiver desconto para coração trouxa
           C#m
Pode reservar a prateleira toda
                  A              B
Para um recém largado pós abandonado
                C#m
Toda cachaça é pouca

[Refrão]

     A
Iêiêiê
                   B                 C#m
É hoje que eu me acabo aqui nessa bagaça
     A
Iêiêiê
              B                    C#m
Se eu cair relaxa que do chão não passa

     A
Iêiêiê
                   B                 C#m
É hoje que eu me acabo aqui nessa bagaça
     A
Iêiêiê
              B                    C#m
Se eu cair relaxa que do chão não passa

[Intro] A  B  C#m
 
#4t1#            A       B           C#m
#4t2#E|------5p4-----------7-7-7-7-7/9---------------------|
B|----5-----7-5-5-5/7---------------9-7-5h7p5~--------|
G|-/6-------------------------------------------------|
D|----------------------------------------------------|
A|----------------------------------------------------|
E|----------------------------------------------------|#/4t2##/4t1#
Composição: Breno Casagrande / Felipe Amorim / Kinho Chefão / SamirColaboração e revisão: Getúlio Vasconcelos