busca

Recém Abandonado

Wesley Safadão

Tom: Ab (forma dos acordes no tom de G) Capotraste na 1ª casa
[Intro] A  B  C#m
 
            A       B           C#m
E|------5p4-----------7-7-7-7-7/9---------------------|
B|----5-----7-5-5-5/7---------------9-7-5h7p5~--------|
G|-/6-------------------------------------------------|
D|----------------------------------------------------|
A|----------------------------------------------------|
E|----------------------------------------------------|

[Primeira Parte]
 
 A                      B
Desce uma bebida quente 
                 C#m
Para derreter o gelo que ela me deu
 A                      B
Mas desce de copo cheio
                 C#m
Porque vazio já basta eu

[Segunda Parte]

 A                   B
Desce um litro da mineira
                   C#m
Para ver se eu esqueço daquela covarde
 A                   B            C#m
Porque um copo vazio   é oficina da saudade

[Pré-Refrão]

               A                   B
E se tiver desconto para coração trouxa
           C#m
Pode reservar a prateleira toda
                  A              B
Para um recém largado pós abandonado
                C#m
Toda cachaça é pouca

               A                   B
E se tiver desconto para coração trouxa
           C#m
Pode reservar a prateleira toda
                  A              B
Para um recém largado pós abandonado
                C#m
Toda cachaça é pouca

[Refrão]

     A
Iêiêiê
                   B                 C#m
É hoje que eu me acabo aqui nessa bagaça
     A
Iêiêiê
              B                    C#m
Se eu cair relaxa que do chão não passa

[Solo] A  B  C#m
       A  B  C#m

            A       B           C#m
E|------5p4-----------7-7-7-7-7/9---------------------|
B|----5-----7-5-5-5/7---------------9-7-5h7p5~--------|
G|-/6-------------------------------------------------|
D|----------------------------------------------------|
A|----------------------------------------------------|
E|----------------------------------------------------|

            A       B           C#m
E|------5p4-----------7-7-7-7-7/9---14--12--9~--------|
B|----5-----7-5-5-5/7---------------------------------|
G|-/6-------------------------------------------------|
D|----------------------------------------------------|
A|----------------------------------------------------|
E|----------------------------------------------------|

[Segunda Parte]

 A                   B
Desce um litro da mineira
                   C#m
Para ver se eu esqueço daquela covarde
 A                   B            C#m
Porque um copo vazio   é oficina da saudade

[Pré-Refrão]

               A                   B
E se tiver desconto para coração trouxa
           C#m
Pode reservar a prateleira toda
                  A              B
Para um recém largado pós abandonado
                C#m
Toda cachaça é pouca

               A                   B
E se tiver desconto para coração trouxa
           C#m
Pode reservar a prateleira toda
                  A              B
Para um recém largado pós abandonado
                C#m
Toda cachaça é pouca

[Refrão]

     A
Iêiêiê
                   B                 C#m
É hoje que eu me acabo aqui nessa bagaça
     A
Iêiêiê
              B                    C#m
Se eu cair relaxa que do chão não passa

     A
Iêiêiê
                   B                 C#m
É hoje que eu me acabo aqui nessa bagaça
     A
Iêiêiê
              B                    C#m
Se eu cair relaxa que do chão não passa

[Intro] A  B  C#m
 
            A       B           C#m
E|------5p4-----------7-7-7-7-7/9---------------------|
B|----5-----7-5-5-5/7---------------9-7-5h7p5~--------|
G|-/6-------------------------------------------------|
D|----------------------------------------------------|
A|----------------------------------------------------|
E|----------------------------------------------------|

Clipes