busca

Ressaca de Saudade

Wesley Safadão

Tom: Bm
[Intro] Bm  G  D  A

E|---------------------------------------5--|
B|--5-7-5-------5-7-5-------5-7-5-----------|
G|--------7-4-7-------7-4-7-------7-4-7-----|
D|------------------------------------------|
A|------------------------------------------|
E|------------------------------------------|

E|-3-2----------5-3-2h3p2-------------------|
B|-----3-5--7-------------3-5----7-5--------|
G|------------2-----------------------6-----|
D|--------------------------------------7-9-|
A|------------------------------------------|
E|------------------------------------------|


Bm                               D
   Visualizei mas não vou responder
                             E
Da minha boca não vai ouvir nada
                               G
Até que eu tinha coisas pra falar
                              Bm
Mas vou tomar vergonha nessa cara
                          D
Você não vale a consideração
                           E
Nenhuma lágrima minha vai ver
                              G
Vai ser difícil ter o meu perdão
                              A
Meu coração não pertence a você
 Em           G                 A
Da minha vida você não merece saber

          Bm            G
Mas se o seu telefone tocar
   D
Lá pras três ou quatro da manhã
           Em
Eu não voltei atrás
         G
Eu já bebi demais
            Bm
Faça o que sempre fez
            A
Não me atenda nenhuma vez

( Bm  G  D  A )
( Bm  G  D  A )

Bm                               D
   Visualizei mas não vou responder
                             Em
Da minha boca não vai ouvir nada
                               G
Até que eu tinha coisas pra falar
                              Bm
Mas vou tomar vergonha nessa cara
                          D
Você não vale a consideração
                           Em
Nenhuma lágrima minha vai ver
                              G
Vai ser difícil ter o meu perdão
                              A
Meu coração não pertence a você
 Em           G                 A
Da minha vida você não merece saber

          Bm             G
Mas se o seu telefone tocar
 D
Lá pras três ou quatro da manhã
           Em
Eu não voltei atrás
         G
Eu já bebi demais
            Bm
Faça o que sempre fez
            A
Não me atenda nenhuma vez

[Final] Bm  G  D  A

Clipes

Cifra Club Pro

Aproveite o Cifra Club com benefícios exclusivos e sem anúncios
7 dias grátis
Cifra Club Pro
Aproveite o Cifra Club com benefícios exclusivos e sem anúncios
7 dias grátis