busca

Sextou

Wesley Safadão

Tom: D#
Solo intro

Parte 1:
E|------------------------------------------
B|--8-8p6--4p3-4p3-4p3-4p3-4p3--------------
G|------------------------------5-----------
D|------------------------------------------
A|------------------------------------------
E|------------------------------------------ (2x)

Parte 2:

E|------------------------------------------
B|--9-9p8--6p4h6----9-9p8-6p4h6-------------
G|------------------------------------------
D|------------------------------------------
A|------------------------------------------
E|------------------------------------------

Parte 3:

E|------------------------------------------
B|--4--3h4p3h4p3h4p3h4--/8------------------
G|------------------------------------------
D|------------------------------------------
A|------------------------------------------
E|------------------------------------------

Cm
Toda segunda feira acordo cedo para trabalhar
G#
À noite a faculdade não me deixa descansar 
Fm
É só correria, tem problema todo dia 
Bb             G
Oh que agonia, oh que agonia 
Cm
A minha vida amorosa tá uma decepção 
G#
Tô largado, tô jogado, vivendo de solidão 
Fm
Já cansei de fantasia, não suporto mais mentiras 
Bb             G
Oh que agonia, oh que agonia 
G#
Mas eu sei que o meu sofrimento pode se acabar 
Cm
Vou é reunir o meus amigos pra bebemorar 
G#        Fm          Bb
O meu fim de semana chegou
G
A festa começou 

Refrão:

Cm      G#
Sextou, sextooou 
Bb                      G
Hoje ninguém me acha, o celular descarregou 
Cm      G#
Sextou, sextooou 
Bb                    G
Só chego de manhã agarrado com outro amor 
Cm      G#
Sextou, sextooou 
Bb                     G
Hoje ninguém me acha, o celular descarregou 
Cm     G#
Sextou, sextooou 
Bb                    G
Só chego de manha agarrado com novo amor

Clipes

Cifra Club Pro

Aproveite o Cifra Club com benefícios exclusivos e sem anúncios
7 dias grátis
Cifra Club Pro
Aproveite o Cifra Club com benefícios exclusivos e sem anúncios
7 dias grátis