busca

Vai Embrazando

Wesley Safadão

Tom: G#
[Intro] G#  A#m

[Solo intro]

E|------------8---8-6-8-6----------8---8-6-8-6-------------|
B|-----6-8-9----9-----------6-8-9----9---------------------|
G|---8--------------------8--------------------------------| 
D|---------------------------------------------------------|
A|---------------------------------------------------------|
E|---------------------------------------------------------|


E|------------8---8-6-8-6----------8---8-6-8-6-------------|
B|-----6-8-9----9-----------6-8-9----9---------------------|
G|---8--------------------8--------------------------------| 
D|---------------------------------------------------------|
A|---------------------------------------------------------|
E|---------------------------------------------------------|


G#
Se juntou com a amiga
A#m
E foi lá pra casa
G#
Abre a geladeira
A#m
Pega a Catuaba

Fm                         A#m
Depois de uns corte, ela ficou animada
Fm                         A#m
Depois de uns corte, ela ficou malcriada

G#           (Pausa)
Então para

     A#m
Já pode ficar pelada
       G#
Não repara
        A#m
Que a casa tá bagunçada

Fm                    A#m
Se tá travada, no meu som ela destrava
Fm                     A#m
Ainda mais que tu tem cara de safada
    G#  (Pausa)                     D#      G#
A noite é uma criança, daqui a pouco vamo aí
                           D#
Mas aproveitando que o esquenta é aqui

G#             A#m
Vai embrazando
G#             A#m
Vai embrazando
G#             A#m
Vai embrazando
G#             A#m
Vai embrazando

E|------------8---8-6-8-6----------8---8-6-8-6-------------|
B|-----6-8-9----9-----------6-8-9----9---------------------|
G|---8--------------------8--------------------------------|     
D|---------------------------------------------------------|
A|---------------------------------------------------------|
E|---------------------------------------------------------|

E|------------8---8-6-8-6----------8---8-6-8-6-------------|
B|-----6-8-9----9-----------6-8-9----9---------------------|
G|---8--------------------8--------------------------------|     
D|---------------------------------------------------------|
A|---------------------------------------------------------|
E|---------------------------------------------------------|


G#
Se juntou com a amiga
A#m
E foi lá pra casa
G#
Abre a geladeira
A#m
Pega a Catuaba

Fm                         A#m
Depois de uns corte, ela ficou animada
Fm                         A#m
Depois de uns corte, ela ficou malcriada

G#           (Pausa)
Então para

     A#m
Já pode ficar pelada
       G#
Não repara
        A#m
Que a casa tá bagunçada

Fm                    A#m
Se tá travada, no meu som ela destrava
Fm                     A#m
Ainda mais que tu tem cara de safada
    G#  (Pausa)                     D#      G#
A noite é uma criança, daqui a pouco vamo aí
                           D#
Mas aproveitando que o esquenta é aqui

G#             A#m
Vai embrazando
G#             A#m
Vai embrazando
G#             A#m
Vai embrazando
G#             A#m
Vai embrazando

[Solo]

E|------------8---8-6-8-6----------8---8-6-8-6-------------|
B|-----6-8-9----9-----------6-8-9----9---------------------|
G|---8--------------------8--------------------------------|  
D|---------------------------------------------------------|
A|---------------------------------------------------------|
E|---------------------------------------------------------|

E|------------8---8-6-8-6----------8---8-6-8-6-------------|
B|-----6-8-9----9-----------6-8-9----9---------------------|
G|---8--------------------8--------------------------------|  
D|---------------------------------------------------------|
A|---------------------------------------------------------|
E|---------------------------------------------------------|

Clipes