busca

Nam Nam Não (Veja Só No Que Deu)

Wesley Safadão

Tom: Ab (forma dos acordes no tom de G) Capotraste na 1ª casa
        Em
E|---------------------------------------|
B|--5/6-6-6-6----------------------------|
G|------------5-5-5----------------------|
D|------------------6-6-6-5-3------------|
A|---------------------------------------|  2x 
E|---------------------------------------|

        Em
E|--------------4------------------------|
B|--6-5-6-5-6-5--------------------------|
G|---------------------------------------|
D|---------------------------------------|
A|---------------------------------------|  2x 
E|---------------------------------------|

        Em
E|--------------6------------------------|
B|--8-7-8-7-8-7----8-7-8-7-8-7-4/6-------|
G|---------------------------------------|
D|---------------------------------------|
A|---------------------------------------|
E|---------------------------------------|

Em
Ta se sentindo humilhada sozinha
Quero lembrar pra você
                D   C     D
Que a culpa não foi minha 
         Em
Não foi minha.

Tava chorando de barriga cheia
Quero lembrar pra você
                D   C      D
Que a culpa não foi minha
         Em
Não foi minha.
Em
Quem escolhe demais sai perdendo
Espero que com os erros na vida
           D
Termine aprendendo
C            D                Em
Hoje tás colhendo o que plantou
Em                                       D
Veja só no que deu, veja só no que deu
C                     B
Você dizia que eu era ruim e arranjou
                  Em
Outro pior do que eu   (2x)

Clipes