Infância Foda

Whindersson Nunes

Tom: G
Tuning: D A D G B E 

#1t1##1t2#E|---------------------------------------------------------------------------|    _____
B|---------------------------------------------------------------------------|         |
G|-------7-----5-----7-----5-----------------------------------------------------|       |
D|---7---7--5--5--7--7--5--5--7-7-7-----------------------------------------------------|     |   10X
A|---7---5--5--3--7--5--5--3--7-7-7----------------------------------------------------|      |
D|---7------5-----7-----5-----7-7-7-------------------------------------------------|       |#/1t2##/1t1#
#2t1#                              |_PM_|
#2t2#E|---------------------------------------------------------------------------|
B|---------------------------------------------------------------------------|
G|----------7~~~~---------5~~~~---------7~~~~-----------------------------------------------|   2X___________|
D|---7~~~~--7~~~~--5~~~~--5~~~~--7~~~~--7~~~~--------------------------------------------------------------| |
A|---7~~~~--5~~~~--5~~~~--3~~~~--7~~~~--5~~~~--------------------------------------------------------------| |
D|---7~~~~---------5~~~~---------7~~~~------------------------------------------------------|                |#/2t2##/2t1#
#3t1#                                               INFÃNCIA FODA!X2                                          _____ |   
#3t2#E|---------------------------------------------------------------------------|
B|---------------------------------------------------------------------------|            
G|---------------------------------------------------------------------------|
D|---2~-2~-2~--22233333-------------------------------------------------------------------|     4X|
A|---2~-2~-2~--22233333--------------------------------------------------------------------|      |
D|---2~-2~-2~--22233333------------------------------------------------------------------|        |#/3t2##/3t1#
#4t1#                CALA A BOCA MÃO NA BOCA 
#4t2#E|---------------------------------------------------------------------------|
B|---------------------------------------------------------------------------|            
G|---------------------------------------------------------------------------|
D|---2~-2~-2~--22233333-------------------------------------------------------------------|     6X|
A|---2~-2~-2~--22233333--------------------------------------------------------------------|      |
D|---2~-2~-2~--22233333------------------------------------------------------------------|#/4t2##/4t1#
#5t1#              FILHO DE RAPARIGA
#5t2#E|---------------------------------------------------------------------------|
B|---------------------------------------------------------------------------|
G|----------7~~~~---------5~~~~---------7~~~~-----------------------------------------------|   2X___________|
D|---7~~~~--7~~~~--5~~~~--5~~~~--7~~~~--7~~~~--------------------------------------------------------------| |
A|---7~~~~--5~~~~--5~~~~--3~~~~--7~~~~--5~~~~--------------------------------------------------------------| |
D|---7~~~~---------5~~~~---------7~~~~------------------------------------------------------|                |#/5t2##/5t1#

INFÃNCIA FODA!(2x)                             


Composição: Whindersson NunesColaboração e revisão: Vitor Hoffmann