busca

Garrettes Revenge

XXXTENTACION

Tom: Bm
  Bm                G                 A                 F#
E|-----------------|-----------------|-----------------|-----------------|
B|------3------3---|------0------3---|------2------2---|-----------------|
G|-----------------|-----------------|-----------------|------3------3---|
D|------4------4---|-----------------|------2------2---|-----------------|
A|---2------2------|------2------2---|---0------0------|------4------4---|
E|-----------------|---3------3------|-----------------|---2------2------|

   Bm                G                 A                 F#
E|-----------------|-----------------|-----------------|-----------------|
B|------3------3---|------0------0---|------2------2---|-----------------|
G|-----------------|-----------------|-----------------|------3------3---|
D|------4------4---|-----------------|------2------2---|-----------------|
A|---2------2------|------2------2---|---0------0------|------4------4---|
E|-----------------|---3------3------|-----------------|---2------2------|

   Bm                G                 A                 F#
E|-----------------|-----------------|-----------------|-----------------|
B|------3------3---|------0------3---|------2------2---|-----------------|
G|-----------------|-----------------|-----------------|------3------3---|
D|------4------4---|-----------------|------2------2---|-----------------|
A|---2------2------|------2------2---|---0------0------|------4------4---|
E|-----------------|---3------3------|-----------------|---2------2------|

   Bm                G                 A                 F#
E|-----------------|-----------------|-----------------|-----------------|
B|------3------3---|------0------0---|------2------2---|-----------------|
G|-----------------|-----------------|-----------------|------3------3---|
D|------4------4---|-----------------|------2------2---|-----------------|
A|---2------2------|------2------2---|---0------0------|------4------4---|
E|-----------------|---3------3------|-----------------|---2------2------|

   Bm                G                 A                 F#
E|-----------------|-----------------|-----------------|-----------------|
B|------3------3---|------0------0---|------2------2---|-----------------|
G|-----------------|-----------------|-----------------|------3------3---|
D|------4------4---|-----------------|------2------2---|-----------------|
A|---2------2------|------2------2---|---0------0------|------4------4---|
E|-----------------|---3------3------|-----------------|---2------2------|

   Bm                G                 A                 F#
E|-----------------|-----------------|-----------------|-----------------|
B|------3------3---|------0------0---|------2------2---|-----------------|
G|-----------------|-----------------|-----------------|------3------3---|
D|------4------4---|-----------------|------2------2---|-----------------|
A|---2------2------|------2------2---|---0------0------|------4------4---|
E|-----------------|---3------3------|-----------------|---2------2------|

   Bm                G                 A                 F#
E|-----------------|-----------------|-----------------|-----------------|
B|------3------3---|------0------0---|------2------2---|-----------------|
G|-----------------|-----------------|-----------------|------3------3---|
D|------4------4---|-----------------|------2------2---|-----------------|
A|---2------2------|------2------2---|---0------0------|------4------4---|
E|-----------------|---3------3------|-----------------|---2------2------|

   Bm                G                 A                 F#
E|-----------------|-----------------|-----------------|-----------------|
B|------3------3---|------0------0---|------2------2---|-----------------|
G|-----------------|-----------------|-----------------|------3------3---|
D|------4------4---|-----------------|------2------2---|-----------------|
A|---2------2------|------2------2---|---0------0------|------4------4---|
E|-----------------|---3------3------|-----------------|---2------2------|

   Bm                G                 A                 F#
E|-----------------|-----------------|-----------------|-----------------|
B|------3------3---|------0------0---|------2------2---|-----------------|
G|-----------------|-----------------|-----------------|------3------3---|
D|------4------4---|-----------------|------2------2---|-----------------|
A|---2------2------|------2------2---|---0------0------|------4------4---|
E|-----------------|---3------3------|-----------------|---2------2------|

   Bm                G                 A                 F#
E|-----------------|-----------------|-----------------|-----------------|
B|------3------3---|------0------0---|------2------2---|-----------------|
G|-----------------|-----------------|-----------------|-----------------|
D|------4------4---|-----------------|------2------2---|-----------------|
A|---2------2------|------2------2---|---0------0------|-----------------|
E|-----------------|---3------3------|-----------------|-----------------|

   Bm                G                 A                 F#
E|-----------------|-----------------|-----------------|-----------------|
B|------3------3---|------0------0---|------2------2---|-----------------|
G|-----------------|-----------------|-----------------|------3------3---|
D|------4------4---|-----------------|------2------2---|-----------------|
A|---2------2------|------2------2---|---0------0------|------4------4---|
E|-----------------|---3------3------|-----------------|---2------2------|

   Bm                G                 A                 F#
E|-----------------|-----------------|-----------------|-----------------|
B|------3------3---|------0------0---|------2------2---|-----------------|
G|-----------------|-----------------|-----------------|------3------3---|
D|------4------4---|-----------------|------2------2---|-----------------|
A|---2------2------|------2------2---|---0------0------|------4------4---|
E|-----------------|---3------3------|-----------------|---2------2------|

   Bm                G                 A                 F#
E|-----------------|-----------------|-----------------|-----------------|
B|-----------------|------0------0---|------2------2---|-----------------|
G|-----------------|-----------------|-----------------|------3------3---|
D|-----------------|-----------------|------2------2---|-----------------|
A|-----------------|------2------2---|---0------0------|------4------4---|
E|-----------------|---3------3------|-----------------|---2------2------|

   Bm                G                 A                 F#
E|-----------------|-----------------|-----------------|-----------------|
B|------3------3---|------0------0---|------2------2---|-----------------|
G|-----------------|-----------------|-----------------|------3------3---|
D|------4------4---|-----------------|------2------2---|-----------------|
A|---2------2------|------2------2---|---0------0------|------4------4---|
E|-----------------|---3------3------|-----------------|---2------2------|

   Bm                G                 A                 F#
E|-----------------|-----------------|-----------------|-----------------|
B|------3------3---|------0------0---|------2------2---|-----------------|
G|-----------------|-----------------|-----------------|------3------3---|
D|------4------4---|-----------------|------2------2---|-----------------|
A|---2------2------|------2------2---|---0------0------|------4------4---|
E|-----------------|---3------3------|-----------------|---2------2------|

Clipes

Cifra Club Pro

Aproveite o Cifra Club com benefícios exclusivos e sem anúncios
Cifra Club Pro
Aproveite o Cifra Club com benefícios exclusivos e sem anúncios