Am7(9)
1234
XX7587
Em
12
022000
F
234
133211
G
123
320003
Tom: G
[Intro]


E|-----------------|-----------0--
B|-------0---------|--------------
G|-----2-----------|--------------
D|---2-------------|--------------
A|-0---------------|--------------
E|-----------------|--------------

E|---|-----------------|-----------
B|---|-----------------|-----------
G|---|-------2---------|-----------
D|---|-----3-----------|-----------
A|---|---3-------------|-----------
E|-0-|-1---------------|-----------

E|------| 
B|------| 
G|------| 
D|------| 
A|------| 
E|0---3-| 



E|-----------------|-----------0--
B|-------0---------|-1------------
G|-----2-----------|--------------
D|---2-------------|--------------
A|-0---------------|--------------
E|-----------------|--------------

E|---|-----------------|-----------
B|---|-----------------|-----------
G|---|-------2---------|-----------
D|---|-----3-----------|-----------
A|---|---3-------------|-----------
E|-0-|-1---------------|-3---------

E|------| 
B|------| 
G|------| 
D|------| 
A|------| 
E|0---3-| 


Am7(9)
 Who do I have?
F
Heaven and hell my friend (my 
friend)
Am7(9)
I won't fit in here
F G Em Everything must end Am7(9) Hello, from the dark side in Does anybody here wanna be my F friend? (my friend) Want it all to end Tell me when the fuck is it all gon' Am7(9) end? Voices in my head F Telling me I'm gonna end up dead G Em Am7(9) F So save me, before I fall Am7(9) F So save me, I don't wanna be alone G Em Am7(9) F So save me, before I fall Am7(9) F So save me, I don't wanna be alone G Em
Composição: XXXTentacionColaboração e revisão: Leonardo Barrosmateus montemorRodrigo MottaGustavo Cabrera