busca

Save Me

XXXTENTACION

Tom: C
[Intro]

E|-----------------|-----------0-----|-----------------|-----------------|
B|-------0---------|-----------------|-----------------|-----------------|
G|-----2-----------|-----------------|-------2---------|-----------------|
D|---2-------------|-----------------|-----3-----------|-----------------|
A|-0---------------|-----------------|---3-------------|-----------------|
E|-----------------|---------------0-|-1---------------|-----------0---3-|

E|-----------------|-----------0-----|-----------------|-----------------|
B|-------0---------|-1---------------|-----------------|-----------------|
G|-----2-----------|-----------------|-------2---------|-----------------|
D|---2-------------|-----------------|-----3-----------|-----------------|
A|-0---------------|-----------------|---3-------------|-----------------|
E|-----------------|---------------0-|-1---------------|-3---------0---3-|

Am7(9)
 Who do I have?
F
Heaven and hell my friend (my friend)
Am7(9)
I won't fit in here
F               G   Em
Everything must end

Am7(9)
Hello, from the dark side in
                              F
Does anybody here wanna be my friend? (my friend)
Want it all to end
                                            Am7(9)
Tell me when the fuck is it all gon' end?
Voices in my head
                            F     G   Em
Telling me I'm gonna end up dead
   Am7(9)                 F
So save me, before I fall
   Am7(9)                     F        G    Em
So save me, I don't wanna be alone
   Am7(9)                 F
So save me, before I fall
   Am7(9)                   F       G    Em
So save me, I don't wanna be alone

Clipes

Cifra Club Pro

Aproveite o Cifra Club com benefícios exclusivos e sem anúncios
Cifra Club Pro
Aproveite o Cifra Club com benefícios exclusivos e sem anúncios