What Are You So Afraid Of

XXXTENTACION

C
123
X32010
F
234
133211
G
123
320003
Tom: G
[Intro] F  G  C  C


E|-0-----0----| -0-----0----|-0--
B|----1-----1-| ----0-----0-|----
G|------------| ------------|----
D|------------| ------------|----
A|------------| ------------|-3--
E|-1-----1----| -3-----3----|----

E|---0-------|-0-----0--------| 
B|1-----1----|----1-----1-----| 
G|---------0-|-------------0--| 
D|-----------|----------------| 
A|---3-------|-3-----3--------| 
E|-----------|----------------| 


         F    G   C
What are you so afraid of?
      F      G          C
Is it love or wasting your time?
         F     G  C
What are you so afraid of?
      F      G          C
Is it love or wasting your time?

F G C Ooh-ooh, ooh-ooh, Ooh-ooh, ooh-ooh F G C Ooh-ooh, ooh-ooh, Ooh-ooh, ooh-ooh F G C What are you so afraid of? F G C Is it love or wasting your time? F G C What are you so afraid of? F G C Is it love or wasting your time? F G C Ooh-ooh, ooh-ooh, Ooh-ooh, ooh-ooh F G C Ooh-ooh, ooh-ooh, Ooh-ooh, ooh-ooh
Composição: J. Cunningham / Robert SoukiasyanColaboração e revisão: José EduardoBilul