busca

Carta Na Manga

Yasmin Santos

Tom: D
[Intro] D  Bm  G 

E|----------------------------------------------------|
B|-7-7-10-10---------7-7-10-10------------------------|
G|------------------------------7~--------------------|
D|----------------------------------------------------|
A|----------------------------------------------------|
E|----------------------------------------------------|

[Primeira Parte]

   D
Saber eu sei, que você não está me merecendo
   A/C#             A  
Saber eu sei que valer, você não tá valendo
   Em                     G
E mente que não senti e brinca com o meu coração
 D                     A
To cabendo direitinho na sua mão

[Pré-Refrão]

       Em                                    G   
Posso ter um milhão de motivos pra te dispensar
        D               
Só que tem um motivo safado
  A                     G         A
Que não tá deixando eu te deixar

[Refrão]

              D         A                        Bm
Sua carta na manga é a sua boca que a minha boca ama, né
    G                           D
As malandragens que faz no colchão
              A                 Em
É a pessoa errada com a pegada certa
                    G  A 
Que jeito que nega?

              D         A                        Bm
Sua carta na manga é a sua boca que a minha boca ama, né
    G                           D
As malandragens que faz no colchão
              A                 Em
É a pessoa errada com a pegada certa
             D    G         A 
Meu quarto pra você sempre porta aberta

[Solo] Bm  G  A

E|----------------------7-5---------------------------|
B|------------------5-8----------------0-0--/5-5-/7-7-|
G|-2-----------------------------------7-7--/6-6-/7-7-|
D|-----4-2--------------------------------------------|
A|----------------------------------------------------|
E|----------------------------------------------------|

E|----------------------------------------------------|
B|-0-0--/5-5--/7-7-----------------2-2---3-3--5-5-----|
G|-0-0--/5-5--/7-7-----------------2-2---4-4--6-6-----|
D|----------------------------------------------------|
A|----------------------------------------------------|
E|----------------------------------------------------|

E|----------------------------------------------------|
B|----------------------------------------------------|
G|----------------------------------------------------|
D|-2-4-5-4-2------------------------------------------|
A|-----------5----------------------------------------|
E|-------------3--------------------------------------|

[Primeira Parte]

   D
Saber eu sei, que você não está me merecendo
   A/C#             A  
Saber eu sei que valer, você não tá valendo
   Em                     G
E mente que não senti e brinca com o meu coração
 D                     A
To cabendo direitinho na sua mão

[Pré-Refrão]

       Em                                    G   
Posso ter um milhão de motivos pra te dispensar
        D               
Só que tem um motivo safado
  A                     G         A
Que não tá deixando eu te deixar

[Refrão]

              D         A                        Bm
Sua carta na manga é a sua boca que a minha boca ama, né
    G                           D
As malandragens que faz no colchão
              A                 Em
É a pessoa errada com a pegada certa
                    G  A 
Que jeito que nega?

              D         A                        Bm
Sua carta na manga é a sua boca que a minha boca ama, né
    G                           D
As malandragens que faz no colchão
              A                 Em
É a pessoa errada com a pegada certa
             D    G         A 
Meu quarto pra você sempre porta aberta

[Final] A  D

                        A D
E|-2/5-2-0---0-2-0------------------------------------|
B|-----------------2----2-3---------------------------|
G|-------------------2--------------------------------|
D|----------------------------------------------------|
A|----------------------------------------------------|
E|----------------------------------------------------|

Clipes

Cifra Club Pro

Aproveite o Cifra Club com benefícios exclusivos e sem anúncios
Cifra Club Pro
Aproveite o Cifra Club com benefícios exclusivos e sem anúncios