Carta Na Manga

Yasmin Santos

A
123
X02220
A/C#
1234
X4X255
Bm
234
X24432
D
123
XX0232
Em
12
022000
G
123
320003
Tom: G
[Intro] D  Bm  G 

#1t1##1t2#E|----------------------------------------------------|
B|-7-7-10-10---------7-7-10-10------------------------|
G|------------------------------7~--------------------|
D|----------------------------------------------------|
A|----------------------------------------------------|
E|----------------------------------------------------|#/1t2##/1t1#

[Primeira Parte]

   D
Saber eu sei, que você não está me merecendo
   A/C#             A  
Saber eu sei que valer, você não tá valendo
   Em                     G
E mente que não senti e brinca com o meu coração
 D                     A
To cabendo direitinho na sua mão

[Pré-Refrão]

       Em                                    G   
Posso ter um milhão de motivos pra te dispensar
        D               
Só que tem um motivo safado
  A                     G         A
Que não tá deixando eu te deixar

[Refrão]

              D         A                        Bm
Sua carta na manga é a sua boca que a minha boca ama, né
    G                           D
As malandragens que faz no colchão
              A                 Em
É a pessoa errada com a pegada certa
                    G  A 
Que jeito que nega?

              D         A                        Bm
Sua carta na manga é a sua boca que a minha boca ama, né
    G                           D
As malandragens que faz no colchão
              A                 Em
É a pessoa errada com a pegada certa
             D    G         A 
Meu quarto pra você sempre porta aberta

[Solo] Bm  G  A

#2t1##2t2#E|----------------------7-5---------------------------|
B|------------------5-8----------------0-0--/5-5-/7-7-|
G|-2-----------------------------------7-7--/6-6-/7-7-|
D|-----4-2--------------------------------------------|
A|----------------------------------------------------|
E|----------------------------------------------------|#/2t2##/2t1#

#3t1##3t2#E|----------------------------------------------------|
B|-0-0--/5-5--/7-7-----------------2-2---3-3--5-5-----|
G|-0-0--/5-5--/7-7-----------------2-2---4-4--6-6-----|
D|----------------------------------------------------|
A|----------------------------------------------------|
E|----------------------------------------------------|#/3t2##/3t1#

#4t1##4t2#E|----------------------------------------------------|
B|----------------------------------------------------|
G|----------------------------------------------------|
D|-2-4-5-4-2------------------------------------------|
A|-----------5----------------------------------------|
E|-------------3--------------------------------------|#/4t2##/4t1#

[Primeira Parte]

   D
Saber eu sei, que você não está me merecendo
   A/C#             A  
Saber eu sei que valer, você não tá valendo
   Em                     G
E mente que não senti e brinca com o meu coração
 D                     A
To cabendo direitinho na sua mão

[Pré-Refrão]

       Em                                    G   
Posso ter um milhão de motivos pra te dispensar
        D               
Só que tem um motivo safado
  A                     G         A
Que não tá deixando eu te deixar

[Refrão]

              D         A                        Bm
Sua carta na manga é a sua boca que a minha boca ama, né
    G                           D
As malandragens que faz no colchão
              A                 Em
É a pessoa errada com a pegada certa
                    G  A 
Que jeito que nega?

              D         A                        Bm
Sua carta na manga é a sua boca que a minha boca ama, né
    G                           D
As malandragens que faz no colchão
              A                 Em
É a pessoa errada com a pegada certa
             D    G         A 
Meu quarto pra você sempre porta aberta

[Final] A  D

#5t1#                        A D
#5t2#E|-2/5-2-0---0-2-0------------------------------------|
B|-----------------2----2-3---------------------------|
G|-------------------2--------------------------------|
D|----------------------------------------------------|
A|----------------------------------------------------|
E|----------------------------------------------------|#/5t2##/5t1#
Composição: Bruno Sucesso / Daniel Caon / Elan Rúbio / Vinicius PoetaColaboração e revisão: Getúlio Vasconcelos