busca

Copo Que Vai Enchendo

Yasmin Santos

Tom: Ebm
[Intro] B  C#  D#m  B  C#

E|------------------------------------------|
B|--------------------2---------------------|
G|-3-4/6-4--3p1-3p1-3---4-3-1--3h4-3h4-3----|
D|------------------------------------------|
A|------------------------------------------|
E|------------------------------------------|

E|-----------------------7-6-4-2------------|
B|--------------------2----------2h4--------|
G|-3-4/6-4--4-3-1-3h4-----------------------|
D|------------------------------------------|
A|------------------------------------------|
E|------------------------------------------|

[Primeira Parte]

G#m                      B
    A mesma mesa que serviu pra te encontrar
      F#
Hoje vai me ver chorar
      C#
Hoje vai me ver gastar
G#m                    B
    Gastar saudade economizar vontade
      F#                C#
Mas agora é que vem a pior parte

[Pré-Refrão]

     G#m
Sua mesa a três mesas da minha
      B
E o pior é que não tá sozinho
  F#
Quem é essa aí
C#                           G#m             C#  
   Que daqui a pouco vai te levar embora daqui?

[Refrão]

                   B
É copo que vai enchendo
                  C#
É copo que vai secando
                    D#m
Ver meu ex amor com outra

Isso tá me machucando
               B
É copo que enchendo
             C#
É copo derramando
                         D#m
É um tiro de dentro pra fora

Ver essa moça te levando

                   B
É copo que vai enchendo
                  C#
É copo que vai secando
                    D#m
Ver meu ex amor com outra

Isso tá me machucando
               B
É copo que enchendo
             C#
É copo derramando
                         D#m
É um tiro de dentro pra fora

Ver essa moça te levando

B          C#                        D#m    
  E o que dói é saber que vai chamar ela de amor
B               C#                        D#m    
  E o que mais dói é saber que vai chamar ela de amor

[Solo] F#  C#  G#m  B
       F#  C#  G#m  B

E|------------------------------------------|
B|---------------------9--9--7-7/9----------|
G|-11-11-11-11--11\10--10-10-8-8/10---------|
D|------------------------------------------|
A|------------------------------------------|
E|------------------------------------------|

E|------------------------------------------|
B|-11\9--7-7-4-4/7---11\9--7-7-4-4/7--------|
G|-11\10-8-8-6-6/8---11\10-8-8-6-6/8--6/8-6-|
D|------------------------------------------|
A|------------------------------------------|
E|------------------------------------------|

[Pré-Refrão]

     G#m
Sua mesa a três mesas da minha
      B
E o pior é que não tá sozinho
  F#
Quem é essa aí
C#                           G#m             C#  
   Que daqui a pouco vai te levar embora daqui?

[Refrão]

                   B
É copo que vai enchendo
                  C#
É copo que vai secando
                    D#m
Ver meu ex amor com outra

Isso tá me machucando
               B
É copo que enchendo
             C#
É copo derramando
                         D#m
É um tiro de dentro pra fora

Ver essa moça te levando

                   B
É copo que vai enchendo
                  C#
É copo que vai secando
                    D#m
Ver meu ex amor com outra

Isso tá me machucando
               B
É copo que enchendo
             C#
É copo derramando
                         D#m
É um tiro de dentro pra fora

Ver essa moça te levando

B          C#                        D#m    
  E o que dói é saber que vai chamar ela de amor
B               C#                        D#m    
  E o que mais dói é saber que vai chamar ela de amor
B          C#                        D#m    
  E o que dói é saber que vai chamar ela de amor
B               C#                        D#m    
  E o que mais dói é saber que vai chamar ela de amor

Clipes

Cifra Club Pro

Aproveite o Cifra Club com benefícios exclusivos e sem anúncios
Cifra Club Pro
Aproveite o Cifra Club com benefícios exclusivos e sem anúncios