Desbeija Minha Boca

Yasmin Santos

Am7
12
X02010
C
123
X32010
Dm7
34
X57565
Em
12
022000
F
234
133211
F7M
1234
1X221X
G
123
320003
G/B
123
X20033
G4(6)
123
320010
Tom: G
[Intro] F7M  G4(6)  Am7  C
        F7M  G4(6)  Am7  C

#1t1#   F7M          G4(6) 
#1t2#E|-------0------------0---------------------|
B|-----1---1--------1---1-0-----------------|
G|---2-------2----0-------------------------|
D|-3----------------------------------------|
A|------------------------------------------|
E|--------------3---------------------------|#/1t2##/1t1#

#2t1#   Am7           C
#2t2#E|-------3---------3------------------------|
B|-----1---1-----1---1----------------------|
G|---0-------0---0-----0--------------------|
D|---------------2--------------------------|
A|-0-------------3--------------------------|
E|------------------------------------------|#/2t2##/2t1#

#3t1#   F7M          G4(6) 
#3t2#E|-------0------------0---------------------|
B|-----1---1--------1---1-0-----------------|
G|---2-------2----0-------------------------|
D|-3----------------------------------------|
A|------------------------------------------|
E|--------------3---------------------------|#/3t2##/3t1#

#4t1#   Am7           C
#4t2#E|-------3-------3--------------------------|
B|-----1---1-----1--------------------------|
G|---0-------0---0--------------------------|
D|---------------2--------------------------|
A|-0-------------3--------------------------|
E|------------------------------------------|#/4t2##/4t1#

[Primeira Parte]

       F7M
Faz assim
                                           Am7
Pega todos os presentes que te dei e joga fora
                            F7M
O controle da Tv é só seu agora
                                    C
Pega as minhas roupas e faz uma doação
                 G
Ou um brechó no seu portão

[Pré-Refrão]

             Dm7
Existem mil formas pra desapegar
              F7M
Bloqueia meu nome no seu celular
       C
Me exclui da sua vida
G                                     Dm7
Infelizmente tem coisa que não vai mudar
     C    G/B  Am7  Em  F  G       
Mas se qui____ser  te_ntar

[Refrão]

    Dm7
Desbeija minha boca
   F
Desama meu sorriso
    Am7                               G
Esquece da gente na cama perdendo o juízo
    Dm7
Desbeija minha boca
   F
Desama meu sorriso
    Am7                               G
Esquece da gente na cama perdendo o juízo

    Dm7                    G
Desfaz esse amor se for capaz
                                Am7   
Só toma cuidado pra não querer mais

[Solo] Dm7  F  Am7  G  Dm7  G

[Pré-Refrão]

             Dm7
Existem mil formas pra desapegar
              F7M
Bloqueia meu nome no seu celular
       C
Me exclui da sua vida
G                                     Dm7
Infelizmente tem coisa que não vai mudar
     C    G/B  Am7  Em  F  G       
Mas se qui____ser  te_ntar

[Refrão]

    Dm7
Desbeija minha boca
   F
Desama meu sorriso
    Am7                               G
Esquece da gente na cama perdendo o juízo
    Dm7
Desbeija minha boca
   F
Desama meu sorriso
    Am7                               G
Esquece da gente na cama perdendo o juízo

    Dm7
Desbeija minha boca
   F
Desama meu sorriso
    Am7                               G
Esquece da gente na cama perdendo o juízo
    Dm7
Desbeija minha boca
   F
Desama meu sorriso
    Am7                               G
Esquece da gente na cama perdendo o juízo

    Dm7                    G
Desfaz esse amor se for capaz
                                Am7   
Só toma cuidado pra não querer mais
Composição: Yasmin SantosColaboração e revisão: Thiago Almeidaclara santos