busca

Desbeija Minha Boca

Yasmin Santos

Tom: A
[Intro] F7M  G4(6)  Am7  C
        F7M  G4(6)  Am7  C

   F7M          G4(6) 
E|-------0------------0---------------------|
B|-----1---1--------1---1-0-----------------|
G|---2-------2----0-------------------------|
D|-3----------------------------------------|
A|------------------------------------------|
E|--------------3---------------------------|

   Am7           C
E|-------3---------3------------------------|
B|-----1---1-----1---1----------------------|
G|---0-------0---0-----0--------------------|
D|---------------2--------------------------|
A|-0-------------3--------------------------|
E|------------------------------------------|

   F7M          G4(6) 
E|-------0------------0---------------------|
B|-----1---1--------1---1-0-----------------|
G|---2-------2----0-------------------------|
D|-3----------------------------------------|
A|------------------------------------------|
E|--------------3---------------------------|

   Am7           C
E|-------3-------3--------------------------|
B|-----1---1-----1--------------------------|
G|---0-------0---0--------------------------|
D|---------------2--------------------------|
A|-0-------------3--------------------------|
E|------------------------------------------|

[Primeira Parte]

       F7M
Faz assim
                                           Am7
Pega todos os presentes que te dei e joga fora
                            F7M
O controle da Tv é só seu agora
                                    C
Pega as minhas roupas e faz uma doação
                 G
Ou um brechó no seu portão

[Pré-Refrão]

             Dm7
Existem mil formas pra desapegar
              F7M
Bloqueia meu nome no seu celular
       C
Me exclui da sua vida
G                                     Dm7
Infelizmente tem coisa que não vai mudar
     C    G/B  Am7  Em  F  G       
Mas se qui____ser  te_ntar

[Refrão]

    Dm7
Desbeija minha boca
   F
Desama meu sorriso
    Am7                               G
Esquece da gente na cama perdendo o juízo
    Dm7
Desbeija minha boca
   F
Desama meu sorriso
    Am7                               G
Esquece da gente na cama perdendo o juízo

    Dm7                    G
Desfaz esse amor se for capaz
                                Am7   
Só toma cuidado pra não querer mais

[Solo] Dm7  F  Am7  G  Dm7  G

[Pré-Refrão]

             Dm7
Existem mil formas pra desapegar
              F7M
Bloqueia meu nome no seu celular
       C
Me exclui da sua vida
G                                     Dm7
Infelizmente tem coisa que não vai mudar
     C    G/B  Am7  Em  F  G       
Mas se qui____ser  te_ntar

[Refrão]

    Dm7
Desbeija minha boca
   F
Desama meu sorriso
    Am7                               G
Esquece da gente na cama perdendo o juízo
    Dm7
Desbeija minha boca
   F
Desama meu sorriso
    Am7                               G
Esquece da gente na cama perdendo o juízo

    Dm7
Desbeija minha boca
   F
Desama meu sorriso
    Am7                               G
Esquece da gente na cama perdendo o juízo
    Dm7
Desbeija minha boca
   F
Desama meu sorriso
    Am7                               G
Esquece da gente na cama perdendo o juízo

    Dm7                    G
Desfaz esse amor se for capaz
                                Am7   
Só toma cuidado pra não querer mais

Clipes

Cifra Club Pro

Aproveite o Cifra Club com benefícios exclusivos e sem anúncios
Cifra Club Pro
Aproveite o Cifra Club com benefícios exclusivos e sem anúncios