busca

Abaixa o Som (part. Marília Mendonça)

Zé Neto e Cristiano

Tom: C
Intro: Dm Am C G

E|--------------------------------------|
B|---2-1-----4-4-4-4-4-4-4-4-4-4-2-4/6--|
G|-1-----3-3----------------------------|
D|--------------------------------------|
A|--------------------------------------|
E|--------------------------------------|

E|-------------------4-2-1------------------------------|
B|-6-6-6-6-6-6-6-6-6-------6-6-6-6-6-6-6-4-2-2/4--1h2---|
G|-------------------------------------------3/5------1-|
D|------------------------------------------------------|
A|------------------------------------------------------|
E|------------------------------------------------------|

C           G
Eu só parei aqui
                 Am
Pra esfriar a cabeça
                   Em
Pra não chorar em casa
                 F
Eu fui tomar cerveja
                     Dm
A mulher que eu mais amo
                 G
Acabou de me deixar

 C               G
Já tava melhorando
                Am
Depois das bebidas
              Em
E você vem ouvindo
                F
Essa moda sofrida
                Dm
Vi que cê tava mal
                         G
E eu vim te fazer companhia

Dm
Olha eu sei
                          Am
Que você também sofre por outra pessoa
                                 F
A minha vida também não tá nada boa
          Dm                   G
Você tá piorando a nossa situação

(F  C  Em  Dm)

Refrão:

Dm
Abaixa o som
                              Am
Ou troca essa música de corno aí

Coloca um trem mais animado
              C
Eu tenho que sorrir

Porque ninguém é obrigado
            G
A sofrer comigo

(F  C  Em  Dm)

Dm
Abaixa o som
                                  Am
E não repete essa música de novo não
                                        C
O bar inteiro tá notando a nossa depressão

Eu tô tentando esquecer
                    G
Mas desse jeito eu não consigo

( Dm Am C G )

Clipes