Notificação Preferida

Zé Neto e Cristiano

Bm7
34
X24232
C9
1234
X32033
C9/E
123
XX2530
D
123
XX0232
D/F#
123
2X023X
Em7
1234
022033
Tom: G
[Intro] C9  D  Bm7  Em7

#1t1#[Tab - Dedilhado Intro]

Parte 1 de 2
   C9              D  
#1t2#E|------------------------------------------|
B|-------3-------------3--------------------|
G|-----0---0---------2---2---2--------------|
D|---2-------2-----0-------0---0------------|
A|-3-----------3----------------------------|
E|------------------------------------------|#/1t2##/1t1#

#2t1#Parte 2 de 2
   Bm7             Em7
#2t2#E|------------------------------------------|
B|-------3---------------3------------------|
G|-----2---2-----------0---0----------------|
D|---4-------4-------2-------2--------------|
A|-2-----------2---------------2------------|
E|-----------------0------------------------|#/2t2##/2t1#

[Primeira Parte]

 C9     D
Já doeu
           Bm7        Em7
Mas hoje não dói mais
 C9       D
Tanto fiz
           Bm7      Em7
Que agora tanto faz

#3t1#[Tab - Dedilhado Primeira Parte]

Parte 1 de 2
   C9              D  
#3t2#E|------------------------------------------|
B|-------3-------------3--------------------|
G|-----0---0---------2---2---2--------------|
D|---2-------2-----0-------0---0------------|
A|-3-----------3----------------------------|
E|------------------------------------------|#/3t2##/3t1#

#4t1#Parte 2 de 2
   Bm7             Em7
#4t2#E|------------------------------------------|
B|-------3---------------3------------------|
G|-----2---2-----------0---0----------------|
D|---4-------4-------2-------2--------------|
A|-2-----------2---------------2------------|
E|-----------------0------------------------|#/4t2##/4t1#

[Pré-Refrão]

                  C9
O nosso amor calejou
                      D
Apanhou, apanhou que cansou
                            Bm7
Na minha cama cê fez tanta falta
                        Em7
Que o meu coração te expulsou

             C9 
Não tem mais eu e você
      D
Tá facin de entender
   C9
Você me deu aula 
                          D  C9/E  D/F#
De como aprender te esquecer

[Refrão]

                C9 
Foi, mas não é mais
                          D 
A minha notificação preferida
                Bm7 
Já foi, mas não é mais
                      Em7 
A número um da minha vida
             C9 D
Sinto em te di_zer
                   Em7
Mas eu já superei você

[Solo] C9  D  Em7

#5t1#[Tab - Solo Refrão]

#5t2#E|-----------------------------------------------------|
B|-----------------------------------------------------|
G|-----0-2/4~------0-4/7~--5/7-5-2-2h4~----------------|
D|-2-4--------2-4--------------------------------------|
A|-----------------------------------------------------|
E|-----------------------------------------------------|#/5t2##/5t1#

[Pré-Refrão]

                  C9
O nosso amor calejou
                      D
Apanhou, apanhou que cansou
                            Bm7
Na minha cama cê fez tanta falta
                        Em7
Que o meu coração te expulsou

             C9 
Não tem mais eu e você
      D
Tá facin de entender
   C9
Você me deu aula 
                          D  C9/E  D/F#
De como aprender te esquecer

[Refrão Final]

                C9 
Foi, mas não é mais
                          D 
A minha notificação preferida
                Bm7 
Já foi, mas não é mais
                      Em7 
A número um da minha vida
             C9 D
Sinto em te di_zer
                   Em7
Mas eu já superei você

                C9 
Foi, mas não é mais
                          D 
A minha notificação preferida
                Bm7 
Já foi, mas não é mais
                      Em7 
A número um da minha vida
             C9 D
Sinto em te di_zer
                   Em7
Mas eu já superei você (Solo final)
 C9     D            Em7
Já doeu,  mas hoje não dói mais

#6t1#[Tab - Solo Final]

#6t2#E|---------------x-x-----------------------------------|
B|---------------x-x-----------------------------------|
G|-0-2-4-4/7\4~--x-x--2h4p2~---------------------------|
D|---------------x-x---------4b5r4--0h2----------------|
A|-----------------------------------------------------|
E|-----------------------------------------------------|
                 ↓ ↑  #/6t2##/6t1#
Composição: Junior Gomes / Samuel Alves / Thiago Alves / Vine Show / WesleyColaboração e revisão: Caico AntunesLucas Kappaun
Videoaula NOTIFICAÇÃO PREFERIDA (aula de violão completa)