busca

Por Nossos Filhos

Zé Neto e Cristiano

Tom: C (forma dos acordes no tom de G) Capotraste na 5ª casa
Intro: G D/F# Em C

E|------------------------------------------------------------|
B|------------------------------3/5-5/8-8/12--3/5--5/8-8/13---|
G|-2/4-4/7-7/9----2/4-4/7--7/9--------------------------------|
D|------------------------------------------------------------|
A|------------------------------------------------------------|
E|------------------------------------------------------------|

 Riff:
E|------------------------------------|
B|------------------------------------|
G|------------------------------------|
D|----0-2-4-5/2-----------------------|
A|-0-2---------2----------------------|
E|------------------------------------|
G           D/F#         Em      C

G|----------------------------------------------|
D|----------------------------5---5--2-5--------|  (Contrabaixo)
A|---2-5--2-5----0-5---0-5---7---7--3----3------|
E|--3----3------2-----2-----0---0---------------|



  G
 Duas famílias, uma cidade
 D/F#
 Uma disputa por vaidade
  Em                                     C
 Colocando o poder e ódio na frente do amor

  G
 Duas almas, um sentimento
  D/F#
 Dois sobrenomes, um juramento
  Em
 Não se juntariam em um nome só
 C
 E te esquecer seria o melhor

 G
 E finalmente no altar
  D/F#
 Pedindo a Deus pra abençoar
 Em                      D/F#
 Às alianças que seriam nossas
 C
 Os nossos filho é que vão usar

 G
 E olha a gente aqui agora
 D/F#
 A sua filha é minha nora
  Em                      D/F#
 Não adianta ir contra o destino
  C
 De novo a vida está nos unindo

 G         D/F#
 Oh Oh Oh  Oh Oh Oh

  Em                      D/F#
 Não adianta ir contra o destino
  C
 De novo a vida está nos unindo

Clipes