busca

Status Que Eu Não Queria

Zé Neto e Cristiano

Tom: E
[Intro]  E

[TAB - Intro]

E|-----------------------------------------------------|
B|---5-7-7/9--9\5--------------------------------------|
G|-4--------------2/4----------------------------------|
D|-----------------------------------------------------|
A|-----------------------------------------------------|
E|-----------------------------------------------------|

[Primeira Parte]

E
  Eu não tô nem me reconhecendo
B9
  Já esqueci o caminho de casa
C#m                                A9
    E não uso minha cama faz tempo
                          E/G#     F#m
Eu tripliquei o tanto que eu tô bebendo

[Pré-Refrão]

    A9
Chorando em qualquer ombro
        C#m
Sem beijar nenhuma boca
       A9
Dando fora pra te ver entrando
          B9
Na minha vida uma hora ou outra

[Refrão]

                     E       G#m
Tô no status que eu não queria
                       C#m  G#m
Eu não sabia a falta que fazia
                      A9
Até que eu queria alguém
                       E/G#
Mas quem disse que eu mando?
             F#m
Se eu tô solteiro
                    B9
E o coração tá namorando

               E       G#m
Status que eu não queria
                       C#m   G#m
Eu não sabia a falta que fazia
                      A9
Até que eu queria alguém
                        E/G#
Mas quem disse que eu mando?
             F#m
Se eu tô solteiro
                    B9
E o coração tá namorando

( E  G#m  C#m  A9  B9 )

(Solo refrão)

[TAB - Solo Refrão]

E|-----------------------------------------------------|
B|---5-7-7/9----5/7------5-7-7/9--5--------------------|
G|-4----------4------2/4-------------6-6/8-9-----------|
D|-----------------------------------------------------|
A|-----------------------------------------------------|
E|-----------------------------------------------------|

[Primeira Parte]

E
  Eu não tô nem me reconhecendo
B9
  Já esqueci o caminho de casa
C#m                                A9
    E não uso minha cama faz tempo
                          E/G#     F#m
Eu tripliquei o tanto que eu tô bebendo

[Pré-Refrão]

    A9
Chorando em qualquer ombro
        C#m
Sem beijar nenhuma boca
       A9
Dando fora pra te ver entrando
          B9
Na minha vida uma hora ou outra

[Refrão Final]

                     E       G#m
Tô no status que eu não queria
                       C#m  G#m
Eu não sabia a falta que fazia
                      A9
Até que eu queria alguém
                       E/G#
Mas quem disse que eu mando?
             F#m
Se eu tô solteiro
                    B9
E o coração tá namorando

               E       G#m
Status que eu não queria
                       C#m   G#m
Eu não sabia a falta que fazia
                      A9
Até que eu queria alguém
                        E/G#
Mas quem disse que eu mando?
             F#m
Se eu tô solteiro
                    B9
E o coração tá namorando

               E       G#m  C#m  G#m
Status que eu não queria
                      A9
Até que eu queria alguém
                        E/G#
Mas quem disse que eu mando?
             F#m
Se eu tô solteiro
                    B9
E o coração tá namorando

( E  G#m  C#m  A9  B9  E )

(Solo refrão)

[TAB - Solo Refrão]

E|-----------------------------------------------------|
B|---5-7-7/9----5/7------5-7-7/9--5--------------------|
G|-4----------4------2/4-------------6-6/8-9-----------|
D|-----------------------------------------------------|
A|-----------------------------------------------------|
E|-----------------------------------------------------|

Clipes