busca

To Voltando

Zé Neto e Cristiano

Tom: Eb (forma dos acordes no tom de D) Capotraste na 1ª casa
[Intro] D9  G

E|------------------------------------------|
B|-11-13---------9/11-13--------------------|
G|-------10-12~----------10-12~-------------|
D|------------------------------------------|
A|------------------------------------------|
E|------------------------------------------|

E|------------------------------------------|
B|-11-13------------------------------------|
G|-------10-12~--5-8--3-5-------------------|
D|------------------------------------------|
A|------------------------------------------|
E|------------------------------------------|

[Primeira Parte]

G
  Tá tudo errado, enfim
D                        A9
  Nada mais importa pra mim, eu sei
G                  D                     A9
  Maldita hora que  você me pediu pra sair

[Pré-Refrão]

E
  Agora eu tô jogado
                                            F#m
Coração tá machucado num apartamento do outro
Lado da cidade
             E/G#  A9
Longe de minha   flor
E
  Vê se para pra pensar
                                     F#m
Vamos conversar, se acertar, pôr os pingos nos is
         E/G#  A9                  E
Tô imagina________ndo a gente se amando
       D          E
Outra vez, outra vez

[Refrão]

    A             D
Tô voltando, tô chegando
       F#m             
Não importa o que vai pensar
 E                  D
Vou me explicar, você vai me aceitar
    A         D
Tô voltando, tô chegando
          F#m                                  E
Com uma flor, uma rosa, um beijo de um beija-flor
            D9
Tô no elevador
                   A
Abre a porta, abre a porta

[Pré-Refrão]

E
  Agora eu tô jogado
                                            F#m
Coração tá machucado num apartamento do outro
Lado da cidade
             E/G#  A9
Longe de minha   flor
E
  Vê se para pra pensar
                                     F#m
Vamos conversar, se acertar, pôr os pingos nos is
         E/G#  A9                  E
Tô imagina________ndo a gente se amando
       D          E
Outra vez, outra vez

[Refrão]

    A             D
Tô voltando, tô chegando
       F#m             
Não importa o que vai pensar
 E                  D
Vou me explicar, você vai me aceitar
    A         D
Tô voltando, tô chegando
          F#m                                  E
Com uma flor, uma rosa, um beijo de um beija-flor
            D9
Tô no elevador
                   A
Abre a porta, abre a porta

 G
Tô voltando
        A
Abre a porta

Clipes