/ / / / / / / /
busca

Vivendo Aqui No Mato (part. Trio Parada Dura)

Zé Neto e Cristiano

Tom: C
[Intro] C  E7  F  G  C  G7

[Solo]

Parte 1 de 5
E|----------------------------------------------------|
B|----------------------------------------------------|
G|----------------------------------------------------|
D|----------------------------------------------------|
A|-------3h5-3----------------------------------------|
E|---3h5----------------------------------------------|

Parte 2 de 5
E|--------------12-12-12--13--12-12h13p12--10---7-----|
B|--------------13-13-13--15--13-13--------12--9------|
G|----------------------------------------------------|
D|----------------------------------------------------|
A|----------------------------------------------------|
E|----------------------------------------------------|

Parte 3 de 5
E|--7-7-7--12--10-10h12p10----8---10------------------|
B|--9-9-9--13--12-12--------10--12--------------------|
G|----------------------------------------------------|
D|----------------------------------------------------|
A|----------------------------------------------------|
E|----------------------------------------------------|

Parte 4 de 5
E|----------------------------------------------------|
B|----------------------------------------------------|
G|--4h5-7-4-5-----------------------------------------|
D|----------------------------------------------------|
A|----------------------------------------------------|
E|----------------------------------------------------|

Parte 5 de 5
E|----------------------------------------------------|
B|-----6---5---3---1----------------------------------|
G|----------------------------------------------------|
D|--5/7---5---3---2-----------------------------------|
A|----------------------------------------------------|
E|----------------------------------------------------|

[Primeira Parte]

      C                  G/B                Am  Am/G
Não troco o seu despertador pelo cantar do galo
 F                     C               Dm    Dm/C
Não troco o seu carro bonito pelo meu cavalo

      E7                            Am
Não troco seu ar poluído pelo pó da estrada
               F               C
Aqui não tem trânsito, só tem boiada
             G7                   C    G7 Am Bm
Nosso céu é limpo e a noite enluarada

[Pré-Refrão]

C                G/B                  Am  Am/G
Aqui o nosso alimento é a gente quem faz
     F                 C                Dm  Dm/C
Plantamos de tudo pro gasto e um pouco mais

   E7                                 Am
E se vier fazer visita é que a gente gosta
         F                C
Moda de viola e uma boa prosa
             G7                     C     G7 Am Bm
Em volta da fogueira então a gente mostra

[Refrão]

         C
Meu amanhecer tem o cantar do galo
             E7
O cheiro do mato com gota de orvalho
            F             G                     C   G7 Am Bm
E é tão gostoso beber um café olhando o sol nascer
          C
Pego meu cavalo e saio pelo pasto
             E7
Toco meu berrante apartando o gado
                F                G                   C
Sei que sou caipira mas vivo melhor morando aqui no mato

( C  E7  F  G  C  B7 )

[Pré-Refrão]

 E               B/D#                  C#m
Aqui o nosso alimento é a gente quem faz
     A               E               F#m
Plantamos de tudo pro gasto e um pouco mais

   G#7                                 C#m
E se vier fazer visita é que a gente gosta
         A                   E
Moda de viola e  uma boa prosa
             B7                     E    B7 C#m D#m
Em volta da fogueira então a gente mostra

[Refrão]

         E
Meu amanhecer tem o cantar do galo
             G#7
O cheiro do mato com gota de orvalho
            A             B                     E   B7 C#m D#m
E é tão gostoso beber um café olhando o sol nascer
          E
Pego meu cavalo e saio pelo pasto
             G#7
Toco meu berrante apartando o gado
                A                B                   E  B7 C#m D#m
Sei que sou caipira mas vivo melhor morando aqui no mato

E
Meu amanhecer tem o cantar do galo
             G#7
O cheiro do mato com gota de orvalho
            A             B                     E   B7 C#m D#m
E é tão gostoso beber um café olhando o sol nascer
          E
Pego meu cavalo e saio pelo pasto
             G#7
Toco meu berrante apartando o gado
                A                B                   A  B  E
Sei que sou caipira mas vivo melhor morando aqui no mato

Clipes