busca

Whisky e Gelo

Zé Neto e Cristiano

Tom: E (forma dos acordes no tom de D) Capotraste na 2ª casa
[Intro] F#m  E  D9 

E|----------------------------------------------------|
B|----------------------------------------------------|
G|-------2--2h4-2-1-----1/2---------------------------|
D|-2/4----------------2-----4~------------------------|
A|----------------------------------------------------|
E|----------------------------------------------------|

[Primeira Parte]

 A          
Felicidade é um caminho simples
D9
 Mas não tem placa, é fácil se perder
F#m         E
 Você errou,  errou comigo
D9
 Eu não esperava isso

[Pré-Refrão]

F#
 Foi covardia
E
 Da sua parte
D9
 Doeu saber
             
Que não me amava de verdade

[Refrão]

 A
Se eu te ligar, não atende, é desespero
D9
É culpa desse copo com Whisky e gelo
F#m          E
E amanhã eu volto a te odiar
     D9
Mas basta eu beber que eu volto a te amar

 A
Se eu te ligar, não atende, é desespero
D9
É culpa desse copo com Whisky e gelo
F#m          E
E amanhã eu volto a te odiar
     D9
Mas basta eu beber que eu volto a te amar

[Solo] A  D9  F#m  E  D9

[Pré-Refrão]

F#
 Foi covardia
E
 Da sua parte
D9
 Doeu saber
             
Que não me amava de verdade

[Refrão]

 A
Se eu te ligar, não atende, é desespero
D9
É culpa desse copo com Whisky e gelo
F#m          E
E amanhã eu volto a te odiar
     D9
Mas basta eu beber que eu volto a te amar

 A
Se eu te ligar, não atende, é desespero
D9
É culpa desse copo com Whisky e gelo
F#m          E
E amanhã eu volto a te odiar
     D9
Mas basta eu beber que eu volto a te amar

( A  D9 )

[Final] F#m  E  D9 

E|----------------------------------------------------|
B|----------------------------------------------------|
G|-------2--2h4-2-1-----1/2---------------------------|
D|-2/4----------------2-----4~------------------------|
A|----------------------------------------------------|
E|----------------------------------------------------|

Clipes