busca

Chão de Giz

Zé Ramalho

Chão de Giz (Zé Ramalho)
Tab para contrabaixo

Introdução (2x)

G  |-------------97----97-5-0540--054----777777-12121211/---|
D  |-5-5754-047----95----9------------00--------------------|
A  |-----------7-----7----------3----3----------------------|
E  +--------------------------------------------------------+

G  |-------------97----97-5-0540--054----777777-12121211/---|
D  |-5-5754-070----95----9------------00--------------------|
A  |-----------7-----7----------3----3----------------------|
E  +--------------------------------------------------------+

Eu desço dessa solidão, disparo coisas sobre um chão de giz

G  |-------------97----97-5---------------------------------| Parte 1
D  |-5-5754-047----95----9----------------------------------|
A  |-----------7-----7--------------------------------------|
E  +--------------------------------------------------------+

Há meros devaneios tolos a me torturar

G  |-054-----97--------97-----------------------------------|Parte 2
D  |------00----45-575---9----------------------------------|
A  |----3-------------7------03-----------------------------|
E  +--------------------------------------------------------+

Fotografias recortadas de jornais de folhas amiúde

G  |-054-----97--------97-----------------------------------|Parte 3
D  |------00----45-575---9----------------------------------|
A  |----3-------------7-------------------------------------|
E  +--------------------------------------------------------+

Eu vou te jogar num pano de guardar confetes

G  |--------------------------------------------------------|Parte 4
D  |-7-7-7-7-8-9-9-9-99-8-7-7-7-7-7-7-7-8-9-9-9-99-8-7-7-7--|
A  |--------------------------------------------------------|
E  +--------------------------------------------------------+

Eu vou te jogar num pano de guardar confetes

G  |---------------------------------77-777-7-12121211/-----|Parte 5
D  |-7-7-7-7-8-9-9-9-99-8-7-7-7-2---------------------------|
A  |-----------------------------566------------------------|
E  +--------------------------------------------------------+


Disparo balas de canhão, é inútil pois existe um grão vizir
Parte 1
Há tantas violetas velhas sem um colibri
Parte 2
Queria  usar quem sabe uma camisa de força ou de vênus
Parte 3

Mas não vão gozar de nós apenas um cigarro

G  |--------------------------------77----------------------|Parte 6
D  |-7-7-7-7-8-9-9-9-99-8-7-7-7-2---------------------------|
A  |-----------------------------566------------------------|
E  +--------------------------------------------------------+

Nem vou lhe beijar gastando assim o meu batom

G  |--------------------------------------77-777-7-12121211/-|Parte 7
D  |-5-6-7-7-7-7-7-8-9-9-9-99-8-7-7-7-2----------------------|
A  |-----------------------------------566-------------------|
E  +---------------------------------------------------------+

Repete Introdução (Coro)

Agora pego um caminhão, na lona vou a nocaute outra vez
Parte 1

Pra sempre fui acorrentado no seu calcanhar
Parte 2

Meus vinte anos de "boy, that's over, baby" , Freud explica
Parte 3

Não vou me sujar fumando apenas um cigarro
Parte 6

Nem vou lhe beijar gastando assim o meu batom
Quanto ao pano dos confetes já passou meu carnaval
E isso explica porque o sexo é assunto popular

G  |------------------------------------77------------------|Parte 8
D  |-5-6-7-7-7-7-8-9-9-9-99-8-7-7-7-2-----------------------|
A  |---------------------------------566--------------------|
E  +--------------------------------------------------------+


No mais estou indo embora, no mais estou indo embora...  

G  |-----------------------------------------------------------|Parte 9
D  |-5-6-7-7-7-7-8-9-9-9-99-8-7-7-7-7-7-7-7-8-9-9-9-99-8-7-7-7-|
A  |-----------------------------------------------------------|
E  +-----------------------------------------------------------+


No mais...

G  |--------------------------------------77-777-7-1212-12-1211/-|Parte 10
D  |-5-6-7-7-7-7-7-8-9-9-9-99-8-7-7-7-2--------------------------|
A  |-----------------------------------566-----------------------|
E  +-------------------------------------------------------------+


Repete Introdução (Coro)

Final

G  |------------------------------------------------------|
D  |------------------------------------------------------|
A  |----------3--3-2--------------------------------------|
E  +-3--3-5-7--------5-3----------------------------------+

Clipes

Cifra Club Pro

Aproveite o Cifra Club com benefícios exclusivos e sem anúncios
Cifra Club Pro
Aproveite o Cifra Club com benefícios exclusivos e sem anúncios