Dois Corações e Uma História

Zezé Di Camargo e Luciano

A
123
X02220
A/C#
1234
X4X255
A6
1234
5X465X
A7M
123
X02120
Bb
234
688766
Bb/D
1234
X5X366
Bb6
1234
6X576X
Bb7M
1234
6X776X
Bm
234
X24432
Bm7
34
X24232
Cm
234
X35543
D
123
XX0232
D/E
1234
XX2232
E
123
022100
Eb
234
X65343
F
234
133211
F#
234
244322
F#m
34
244222
G
1234
320033
Gm
34
355333
Tom: G
[Intro]


             D          E
E|-------5-4-2--------------------
B|---------------3------5-------5-
G|---4/6---4---2------------4-----
D|-----------0------4/6---6---6---
A|-0------------------------------
E|----------------------0---------

E|----------| 
B|----------| 
G|--4-------| 
D|6---6-----| 
A|----------| 
E|----------| 



               D       E
E|----9--9-7-7-5-----4-4hp4-------
B|---10-10-9-9-7---7-5-5------5---
G|---------------7----------4---4-
D|-------------0------------------
A|-0------------------------------
E|---------------------0----------

E|4---------| 
B|----5-----| 
G|--4---4---| 
D|----------| 
A|----------| 
E|----------| 



             D          E
E|-------5-4-2--------------------
B|---------------3------5-------5-
G|---4/6---4---2------------4-----
D|-----------0------4/6---6---6---
A|-0------------------------------
E|----------------------0---------

E|----------| 
B|----------| 
G|--4-------| 
D|6---6-----| 
A|----------| 
E|----------| 



               D       E
E|----9--9-7-7-5-----4-4hp4---5---
B|---10-10-9-9-7---7-5-5------7---
G|---------------7----------4-----
D|-------------0------------------
A|-0------------------------------
E|---------------------0--------0-

E|7---10----| 
B|9---12----| 
G|----------| 
D|----------| 
A|----------| 
E|--0----0--| 



E|--9------9----------------------
B|-10---10--------3--2------------
G|----9---------------------------
D|------------2/4-----------------
A|-------------------0------------
E|--------------------------------


[Primeira Parte]

               Bm
No meio da conversa
                 E
De um caso terminando
                     A   A7M
Um fala e o outro escuta
            A6         F#m
E os olhos vão chorando
       Bm
A lógica de tudo
         E
É o desamor que chega
           A           A7M
Depois que um descobre
             A         Bm7  A/C#
Que o outro não se entrega


[Dedilhado Primeira Parte - Primeira Estrofe]

   Bm      E       A       A7M    
E|-------2-------0---------------
B|-------3-------0-------5------5
G|-----4-------1-------6------6--
D|---4-------2-------7------6----
A|-2---------------0------0------
E|---------0---------------------
  A6     F#m
E|---------2-| 
B|------5--2-| 
G|----6----2-| 
D|--4------4-| 
A|0--------4-| 
E|---------2-| 



     Bm      E       A       A7M  
E|-------2-------0----------------
B|-------3-------0-------5------5-
G|-----4-------1-------6------6---
D|---4-------2-------7------6-----
A|-2---------------0------0-------
E|---------0----------------------
  A  Bm7 A/C#
E|----------| 
B|2---3---5-| 
G|2---2---2-| 
D|2---0---2-| 
A|0---2---4-| 
E|----------| 


[Primeira Parte – Segunda Estrofe]

          Bm
Quem vai sair arruma
    E
As coisas põe na mala
    A               A7M
Enquanto o outro fuma
    A6             F#m
Um cigarro na sala
     Bm
E o coração palhaço
   E
Começa a bater forte
           D       D/E
Quem fica não deseja
A Que o outro tenha sorte [Refrão] D E longe um do outro E A vida é toda errada A O homem não se importa F# Com a roupa amarrotada Bm E a mulher em crise E Quantas vezes chora D E A dor de ter perdido um grande amor A F Bb Que foi embora [Segunda parte] Cm Mas quando vem a volta F O homem se arruma Bb Bb7M Faz barba, lava o carro Bb6 Gm Se banha, se perfuma Cm E liga pro amigo F Que tanto lhe deu força Bb Bb7M E jura nunca mais Bb6 Bb/D Vai perder essa moça Cm E a mulher se abraça F À mãe, diz obrigado Bb Bb7M E põe aquela roupa Bb6 Gm Que agrada o seu amado Cm E passa a tarde toda F Cuidando da beleza Eb Jantar à luz de velas F Bb E amor de sobremesa [Refrão] Eb E perto um do outro F A vida é diferente Bb A solidão dá espaço G Ao amor que estava ausente Cm Quem olha não tem jeito F De duvidar agora Eb Da força da paixão que tem F Bb Dois corações e uma história Eb E perto um do outro F A vida é diferente Bb A solidão dá espaço G Ao amor que estava ausente Cm Quem olha não tem jeito F De duvidar agora Eb Da força da paixão que tem F Bb Gm Dois corações e uma história Cm Da força da paixão que tem F Bb Eb F Dois corações e uma história ( Bb Eb F Bb )
Composição: Carlos Randall / DanimarColaboração e revisão: Leandro Sandimdanilo g.gAdalberto Borges
Videoaula Dois Corações e Uma História (completa)

Utilizamos cookies para personalizar sua experiência. Ao acessar o site, você concorda com a nossa Política de Privacidade.