Dou a Vida Por Um Beijo

Zezé Di Camargo e Luciano

Am
123
X02210
C
123
X32010
D
123
XX0232
D/F#
1234
2X0232
Em
12
022000
G
123
320003
G/B
123
X20033
Tom: G
[Intro]

#1t1#   G           Am         C          G
#1t2#E|-----------------------------------------------|
B|-----------------------------------------------|
G|-----------------------------------------------|
D|-0-0-0h3-0---3-3-3h5-3--3-3-3/5-3--0-0-0-/3-0--| (2x)
A|-----------------------------------------------|
E|-----------------------------------------------|#/1t2##/1t1#

#2t1#                                    Am
#2t2#E|-11-9-8----------------------------------------|
B|--------11-9--11-9-8--------------2------------|
G|---------------------10--12-10-8--3------------|
D|----------------------------------3------------|
A|-----------------------------------------------|
E|-----------------------------------------------|#/2t2##/2t1#

[Primeira Parte]

 Am                  G
Difícil demais, te amar assim
 Am                    G
Minha timidez tem que ter um fim
  Am                   G
Preciso perder o medo de falar
  Am                      G
Pra não te perder vou me declarar

[Pré-Refrão]

 G                            Am
Morro de saudade quando você some
                         G/B  C
Dá uma vontade de gritar seu nome
                             G
Quase uma loucura, uma obsessão

  G                              Am
Pra me sentir feliz só tem uma saída
                             G/B  C
Fazer você ficar de vez na minha vida
                               D
Perto dos meus olhos e do coração

[Refrão]

G     D/F# Em        C         G
Eu te amo,    eu preciso te dizer
     D/F#      Am      G/B  C   D/F#  G
Todo dia, toda noite o meu sonho é você
      D/F#  Em      C               G
Eu te amo,    é paixão que não tem fim
     D/F#          Am     G/B  C    D/F#    G
Dou a vida por um beijo quero ter você pra mim

[Solo]

#3t1#   G           Am         C          G
#3t2#E|-----------------------------------------------|
B|-----------------------------------------------|
G|-----------------------------------------------|
D|-0-0-0h3-0---3-3-3h5-3--3-3-3/5-3--0-0-0-/3-0--| (2x)
A|-----------------------------------------------|
E|-----------------------------------------------|#/3t2##/3t1#
#4t1#                                    Am
#4t2#E|-11-9-8----------------------------------------|
B|--------11-9--11-9-8--------------2------------|
G|---------------------10--12-10-8--3------------|
D|----------------------------------3------------|
A|-----------------------------------------------|
E|-----------------------------------------------|#/4t2##/4t1#

[Primeira Parte]

 Am                  G
Difícil demais, te amar assim
 Am                    G
Minha timidez tem que ter um fim
  Am                   G
Preciso perder o medo de falar
  Am                      G
Pra não te perder vou me declarar

[Pré-Refrão]

 G                            Am
Morro de saudade quando você some
                         G/B  C
Dá uma vontade de gritar seu nome
                             G
Quase uma loucura, uma obsessão

  G                              Am
Pra me sentir feliz só tem uma saída
                             G/B  C
Fazer você ficar de vez na minha vida
                               D
Perto dos meus olhos e do coração

[Refrão]

G     D/F# Em        C         G
Eu te amo,    eu preciso te dizer
     D/F#      Am      G/B  C   D/F#  G
Todo dia, toda noite o meu sonho é você
      D/F#  Em      C               G
Eu te amo,    é paixão que não tem fim
     D/F#          Am     G/B  C    D/F#    G
Dou a vida por um beijo quero ter você pra mim

#5t1##5t2#E|---11-9-8---------------------------------------|
B|----------11-9-11-9-8---------------------------|
G|----------------------10-8----------------------|
D|----------------------------11-9----------------|
A|------------------------------------------------|
E|------------------------------------------------|#/5t2##/5t1#
Composição: Antonio Luiz / Cecílio Nena / Lalo PradoColaboração e revisão: Gabriel SilvaRondiney RibeiroMaurício SilvaSidney Mendese mais 3