A
123
X02220
A7
12
X02020
Am
123
X02210
Bb
234
X13331
C
123
X32010
C/E
123
032010
C7
1234
X3231X
Dm
123
XX0231
Dm/C
1234
X3X231
F
234
133211
F/A
1234
5X356X
F7
34
131211
Gm
34
355333
Gm/F
1234
XX3333
Tom: G
[Intro] F  C  Dm  A  Bb 
        F  C  F  C7

#1t1##1t2#E|----------------8-------------------------|
B|-10-11-10-8-6-8---8-5-6-------------------|
G|------------------------------------------|
D|------------------------------------------|
A|------------------------------------------|
E|------------------------------------------|#/1t2##/1t1#

#2t1##2t2#E|-------------5----------------------------|
B|-6-8-6-5---5---5--------------------------|
G|---------7-------6-7----------------------|
D|------------------------------------------|
A|------------------------------------------|
E|------------------------------------------|#/2t2##/2t1#

#3t1##3t2#E|------------------------------------------|
B|------------------------------------------|
G|---------------------10-------------------|
D|---8-12-10-8-10-9/10----------------------|
A|-8----------------------------------------|
E|------------------------------------------|#/3t2##/3t1#

#4t1##4t2#E|------------------------------------------|
B|------------------------------------------|
G|-----------9-10-10/12-10------------------|
D|-8-8-8-7-8--------------------------------|
A|------------------------------------------|
E|------------------------------------------|#/4t2##/4t1#

#5t1##5t2#E|-8-8-8-6-5---6-5--------------------------|
B|-----------8-----8-6-5---8-6-5------------|
G|-----------------------7-------7-5-3-2----|
D|------------------------------------------|
A|------------------------------------------|
E|------------------------------------------|#/5t2##/5t1#

[Primeira Parte]

F                  C             Dm   Dm/C  Bb
  Você pode encontrar muitos amores
                    Am              Gm   Gm/F  C/E
Mas ninguém vai te dar o que eu te dei
              A7           Dm
Podem até te dar algum prazer
                 Bb           F
Mas posso até jurar você vai ver
                     C               F  C7   
Que ninguém vai te amar como eu te amei

[Segunda Parte]

F               C              Dm   Dm/C  Bb
  Você pode provar milhões de beijos
                  Am             Gm  Gm/F  C/E
Mas sei que você vai lembrar de mim
                   A7          Dm
Pois sempre que um outro te tocar
              Bb           F
Na hora você pode se entregar
                     C               F  C7
Mas não vai me esquecer nem mesmo assim

[Refrão]

          F             C          Dm
Eu vou ficar, guardado no seu coração
           F7      Bb           
Na noite fria solidão
         F/A            C
Saudade vai chamar meu nome (meu nome)
          F               C           Dm
Eu vou ficar, num verso triste de paixão
         F7         Bb            F/A        C
Em cada sonho de verão, no toque do seu telefone
         
Você vai ver

[Solo] F  C  Dm  A  Bb 
       F  C  F  C7

#6t1##6t2#E|----------------8-------------------------|
B|-10-11-10-8-6-8---8-5-6-------------------|
G|------------------------------------------|
D|------------------------------------------|
A|------------------------------------------|
E|------------------------------------------|#/6t2##/6t1#

#7t1##7t2#E|-------------5----------------------------|
B|-6-8-6-5---5---5--------------------------|
G|---------7-------6-7----------------------|
D|------------------------------------------|
A|------------------------------------------|
E|------------------------------------------|#/7t2##/7t1#

#8t1##8t2#E|------------------------------------------|
B|------------------------------------------|
G|---------------------10-------------------|
D|---8-12-10-8-10-9/10----------------------|
A|-8----------------------------------------|
E|------------------------------------------|#/8t2##/8t1#

#9t1##9t2#E|------------------------------------------|
B|------------------------------------------|
G|-----------9-10-10/12-10------------------|
D|-8-8-8-7-8--------------------------------|
A|------------------------------------------|
E|------------------------------------------|#/9t2##/9t1#

#10t1##10t2#E|-8-8-8-6-5---6-5--------------------------|
B|-----------8-----8-6-5---8-6-5------------|
G|-----------------------7-------7-5-3-2----|
D|------------------------------------------|
A|------------------------------------------|
E|------------------------------------------|#/10t2##/10t1#

[Segunda Parte]

F               C              Dm   Dm/C  Bb
  Você pode provar milhões de beijos
                  Am             Gm  Gm/F  C/E
Mas sei que você vai lembrar de mim
                   A7          Dm
Pois sempre que um outro te tocar
              Bb           F
Na hora você pode se entregar
                     C               F  C7
Mas não vai me esquecer nem mesmo assim

[Refrão]

          F             C          Dm
Eu vou ficar, guardado no seu coração
           F7      Bb           
Na noite fria solidão
         F/A            C
Saudade vai chamar meu nome (meu nome)
          F               C           Dm
Eu vou ficar, num verso triste de paixão
         F7         Bb            F/A        C
Em cada sonho de verão, no toque do seu telefone
         
Você vai ver
        
          F             C          Dm
Eu vou ficar, guardado no seu coração
           F7      Bb           
Na noite fria solidão
         F/A            C
Saudade vai chamar meu nome (meu nome)
          F               C           Dm
Eu vou ficar, num verso triste de paixão
         F7         Bb            F/A        C
Em cada sonho de verão, no toque do seu telefone
         
Você vai ver

[Final] Bb  F  C  F
        Bb  F  C  F
Composição: Carlos Colla / Elias MunizColaboração e revisão: Thiago AlmeidaVinícius BaioPedro LacerdaVinicius Baioe mais 8