busca

Noite Feliz

Natal

Tom: C
E |-----------------3-3-0--1-1------0-1-0------------0-1-0-----------|
B |1-3-1----1-3-1--------------1--3-------3-1-3-1--3-------3-1-3-1---|
G |------2--------2-------------------------------2----------------2-|
D |------------------------------------------------------------------|
A |------------------------------------------------------------------|
E |------------------------------------------------------------------|

E |3-3-5-6-5-3-1--5---1-------------|
B |-------------------------1-------|
G |---------------------2-2---2-0---|
D |-------------------------------3-|
A |---------------------------------|
E |---------------------------------|

C
Noite Feliz! Noite Feliz!
D7        C
Ó Senhor, Deus de amor
F             C
Pobrezinho nasceu em Belém
F               C
Eis na Lapa, Jesus, nosso bem
D7                C               D7       C
Dorme em paz, ó Jesu-us; dorme em paz, ó Jesus.

Noite Feliz! Noite Feliz!
Ó Jesus, Deus da luz
Quão afável é teu coração
Que quizeste nascer nosso irmão
E a nós todos salva-ar; e a nós todos salvar.

Noite Feliz! Noite Feliz!
Eis que no ar, vêm cantar
Aos pastores os anjos do céu
Anunciando a chegada de Deus
De-e Jesus Salvado-or; de-e Jesus Salvador.

Clipes

Cifra Club Pro

Aproveite o Cifra Club com benefícios exclusivos e sem anúncios
7 dias grátis
Cifra Club Pro
Aproveite o Cifra Club com benefícios exclusivos e sem anúncios
7 dias grátis