Boate Azul

Bruno e Marrone

A
123
X02220
A7
12
X02020
Am
123
X02210
C
123
X32010
D
123
XX0232
Dm
123
XX0231
E
123
022100
F
234
133211
G
1234
320033
Tom: G
[Intro] Dm  G  C  F
        Dm  E  Am  A7
        Dm  G  C  F
        Dm  E  Am

[Solo Introdução]

#1t1#Parte 1
#1t2#E|-1-1-1-0-1-0-1--------------0---0---0----------------|
B|---------------1-0----0-1-3---3---3------------------|
G|----------------------------------------2/4 2--------|
D|-----------------------------------------------------|
A|-----------------------------------------------------|
E|-----------------------------------------------------|#/1t2##/1t1#

#2t1#Parte 2
#2t2#E|-------------------------------------0---------------|
B|---0-1-3-1-3-1-3---------0-1-0-1-2-3-----------------|
G|-2---------------1/2-1-2-----------------------------|
D|-----------------------------------------------------|
A|-----------------------------------------------------|
E|-----------------------------------------------------|#/2t2##/2t1#

#3t1#Parte 3
#3t2#E|-1-0-1-0-1-3/5-3---------0---0---0-1/3-1-------------|
B|-------------------0-1-3---3---3---------------------|
G|-----------------------------------------------------|
D|-----------------------------------------------------|
A|-----------------------------------------------------|
E|-----------------------------------------------------|#/3t2##/3t1#

#4t1#Parte 4
#4t2#E|-----------------------4-5/7-5--------17-------------|
B|---0-1-3-1-3-1-3-5/6-5-------------------------------|
G|-2------------------------------------17-------------|
D|-----------------------------------------------------|
A|----------------------------------------0------------|
E|-----------------------------------------------------|#/4t2##/4t1#

[Primeira Parte]

            Am
Doente de amor procurei remédio
           G
Na vida noturna
               F
Com a flor da noite 
                           E
Em uma boate aqui na zona sul

           Dm
A dor do amor é com outro amor 
             Am
Que a gente cura
             E
Vim curar a dor desse mal de amor
           Am A7
Na boate azul
            Dm
E quando a noite vai se agonizando
                Am
No clarão da aurora
      E
Os integrantes da vida noturna
             Am A7
Se foram dormir
             Dm
E a dama da noite que estava comigo
              Am
Também foi embora
                F
Fecharam-se as portas
            E
Sozinho de novo
          A
Tive que sair

[Refrão]

A              E
  Sair de que jeito
              D              A
Se nem sei o rumo para onde vou
                                 E
Muito vagamente me lembro que estou
         D                 A
Em uma boate aqui na zona sul
           E
Eu bebi demais
          D                  A
E não consigo me lembrar sequer
                            E
Qual era o nome daquela mulher
           D        E      A   A7
A flor da noite na boate azul

( Dm  G  C  F )
( Dm  E  Am  A7 )

[Repete a Primeira Parte]

            Dm
E quando a noite vai se agonizando
                Am
No clarão da aurora
      E
Os integrantes da vida noturna
             Am A7
Se foram dormir
             Dm
E a dama da noite que estava comigo
              Am
Também foi embora
                F
Fecharam-se as portas
            E
Sozinho de novo
          A
Tive que sair

[Refrão Final]

A              E
  Sair de que jeito
              D              A
Se nem sei o rumo para onde vou
                                 E
Muito vagamente me lembro que estou
         D                 A
Em uma boate aqui na zona sul
           E
Eu bebi demais
          D                  A
E não consigo me lembrar sequer
                            E
Qual era o nome daquela mulher
           D        E      A   A7
A flor da noite na boate azul

A              E
  Sair de que jeito
              D              A
Se nem sei o rumo para onde vou
                                 E
Muito vagamente me lembro que estou
         D                 A
Em uma boate aqui na zona sul
           E
Eu bebi demais
          D                  A
E não consigo me lembrar sequer
                            E
Qual era o nome daquela mulher
           D        E      A
A flor da noite na boate azul
Composição: Benedito Seviero / TomazColaboração e revisão: Gustavo CunhaJosé Queirozcarol
Videoaula Boate Azul (aula de violão)