B.O.B

OutKast

Tom: G
Solo


E---------------------------------
B----------15---------------------
G----/16-------16~-----------/16--
D---------------------------------
A---------------------------------
E---------------------------------

E|----------------------------------
B|15--------19--------~15~----------
G|----16--------~16~----------------
D|----------------------------------
A|----------------------------------
E|----------------------------------






E--------------------
B----------15--------
G----/16--------16---
D--------------------
A--------------------
E--------------------

E|-------------------------------------------------   
B|~19^<20>^<19>^<20>^<19>----15--------------------   
G|--------------------------------16~--------------   
D|-------------------------------------------------   
A|-------------------------------------------------   
E|-------------------------------------------------   





E---------------------------- B---------------------------- G---------------------------- D----/14~--16~-------14/16--- A---------------------------- E---------------------------- E|----------------------------------------- B|----------------------------------------- G|----------------------------------16~---- D|19r16h18~----16-18-16-18-19-18-19-------- A|----------------------------------------- E|----------------------------------------- E--------------------------------- B----------------17----17-19~----- G----18-19-18-19----19------------ D--------------------------------- A--------------------------------- E--------------------------------- E|---------------------------------- B|---19-20-19-15-------------------- G|---------------16-18-19-18-16~---- D|---------------------------------- A|---------------------------------- E|---------------------------------- E------------------------------- B--------10----12^<13>^<12>----- G---/11------------------------- D------------------------------- A------------------------------- E------------------------------- E|------------------------------------- B|10---12---12^<13>r---12^<13>r-------- G|------------------------------------- D|------------------------------------- A|------------------------------------- E|------------------------------------- E-------------------12~--- B---12^<13>^<12>---------- G------------------------- D------------------------- A------------------------- E------------------------- E|------------------------------------------- B|12h13r12r10-------------------------------- G|--------------11~--------------------------- D|------------------------------------------- A|------------------------------------------- E|------------------------------------------- *after the solo it's pretty much wah-wah peddle between the fifth and sixth fret on the G string. Alright, enjoy and i'd like to hear some feedback since i did this one by ear and it's my first time writing a tab. Gotta give back to this site since i learned guitar entirely based on this site and playing by ear.
Composição: David SheatsColaboração e revisão: